ISO-10303-21;
HEADER;
/* Generated by software containing ST-Developer
 * from STEP Tools, Inc. (www.steptools.com) 
 */

FILE_DESCRIPTION(
/* description */ ('Alibre Inc.'),
/* implementation_level */ '2;1');

FILE_NAME(
/* name */ 'export-F43307A1-CAF0-4E02-89BD-045AFD3E9CD3',
/* time_stamp */ '2022-11-09T16:49:24+01:00',
/* author */ (''),
/* organization */ (''),
/* preprocessor_version */ 'ST-DEVELOPER v17',
/* originating_system */ 'Alibre',
/* authorisation */ '');

FILE_SCHEMA (('AUTOMOTIVE_DESIGN'));
ENDSEC;

DATA;
#10=STYLED_ITEM('NAME_0',(#43),#383);
#11=STYLED_ITEM('NAME_0',(#44),#236);
#12=STYLED_ITEM('NAME_0',(#44),#237);
#13=STYLED_ITEM('NAME_0',(#45),#225);
#14=STYLED_ITEM('NAME_0',(#45),#226);
#15=STYLED_ITEM('NAME_0',(#45),#227);
#16=STYLED_ITEM('NAME_0',(#45),#228);
#17=STYLED_ITEM('NAME_0',(#45),#229);
#18=STYLED_ITEM('NAME_0',(#45),#230);
#19=STYLED_ITEM('NAME_0',(#45),#231);
#20=STYLED_ITEM('NAME_0',(#45),#232);
#21=STYLED_ITEM('NAME_0',(#45),#233);
#22=STYLED_ITEM('NAME_0',(#45),#234);
#23=STYLED_ITEM('NAME_0',(#45),#235);
#24=MECHANICAL_DESIGN_GEOMETRIC_PRESENTATION_REPRESENTATION('NAME_0',(#10,
#11,#12,#13,#14,#15,#16,#17,#18,#19,#20,#21,#22,#23),#60);
#25=COLOUR_RGB('',0.882352941176471,0.882352941176471,0.882352941176471);
#26=COLOUR_RGB('',0.,0.,0.);
#27=COLOUR_RGB('',0.686274509803922,0.686274509803922,0.686274509803922);
#28=FILL_AREA_STYLE_COLOUR('NAME_0',#25);
#29=FILL_AREA_STYLE_COLOUR('NAME_0',#26);
#30=FILL_AREA_STYLE_COLOUR('NAME_0',#27);
#31=FILL_AREA_STYLE('NAME_0',(#28));
#32=FILL_AREA_STYLE('NAME_0',(#29));
#33=FILL_AREA_STYLE('NAME_0',(#30));
#34=SURFACE_STYLE_FILL_AREA(#31);
#35=SURFACE_STYLE_FILL_AREA(#32);
#36=SURFACE_STYLE_FILL_AREA(#33);
#37=SURFACE_SIDE_STYLE('NAME_0',(#34));
#38=SURFACE_SIDE_STYLE('NAME_0',(#35));
#39=SURFACE_SIDE_STYLE('NAME_0',(#36));
#40=SURFACE_STYLE_USAGE(.POSITIVE.,#37);
#41=SURFACE_STYLE_USAGE(.POSITIVE.,#38);
#42=SURFACE_STYLE_USAGE(.POSITIVE.,#39);
#43=PRESENTATION_STYLE_ASSIGNMENT((#40));
#44=PRESENTATION_STYLE_ASSIGNMENT((#41));
#45=PRESENTATION_STYLE_ASSIGNMENT((#42));
#46=PRODUCT_DEFINITION_CONTEXT('part definition',#53,'design');
#47=SHAPE_DEFINITION_REPRESENTATION(#48,#384);
#48=PRODUCT_DEFINITION_SHAPE('PRODUCT_VERSION_ID',
'PRODUCT_VERSION_DESCR',#49);
#49=PRODUCT_DEFINITION('PRODUCT_VERSION_ID','PRODUCT_VERSION_DESCR',#50,
#46);
#50=PRODUCT_DEFINITION_FORMATION_WITH_SPECIFIED_SOURCE(
'PRODUCT_VERSION_ID','PRODUCT_VERSION_DESCR',#55,.MADE.);
#51=PRODUCT_RELATED_PRODUCT_CATEGORY('part','part',(#55));
#52=APPLICATION_PROTOCOL_DEFINITION('Draft International Standard',
'automotive_design',1994,#53);
#53=APPLICATION_CONTEXT('automotive_Design');
#54=PRODUCT_CONTEXT('3D Mechanical Parts',#53,'mechanical');
#55=PRODUCT('0222100100',
'6112 0222100100 Coil Protection Kit, Coil 22, 8mm, IP65','',(#54));
#56=(
LENGTH_UNIT()
NAMED_UNIT(*)
SI_UNIT(.MILLI.,.METRE.)
);
#57=(
NAMED_UNIT(*)
PLANE_ANGLE_UNIT()
SI_UNIT($,.RADIAN.)
);
#58=(
NAMED_UNIT(*)
SI_UNIT($,.STERADIAN.)
SOLID_ANGLE_UNIT()
);
#59=UNCERTAINTY_MEASURE_WITH_UNIT(LENGTH_MEASURE(1.E-6),#56,
'DISTANCE_ACCURACY_VALUE',
'Maximum model space distance between geometric entities at asserted c
onnectivities');
#60=(
GEOMETRIC_REPRESENTATION_CONTEXT(3)
GLOBAL_UNCERTAINTY_ASSIGNED_CONTEXT((#59))
GLOBAL_UNIT_ASSIGNED_CONTEXT((#58,#57,#56))
REPRESENTATION_CONTEXT('ID1','3D')
);
#61=TOROIDAL_SURFACE('',#262,7.9,0.89);
#62=TOROIDAL_SURFACE('',#265,7.9,0.89);
#63=CYLINDRICAL_SURFACE('',#248,3.55);
#64=CYLINDRICAL_SURFACE('',#256,7.);
#65=CYLINDRICAL_SURFACE('',#261,10.);
#66=PLANE('',#241);
#67=PLANE('',#246);
#68=PLANE('',#250);
#69=PLANE('',#254);
#70=CIRCLE('',#239,7.79769760706087);
#71=CIRCLE('',#240,7.);
#72=CIRCLE('',#242,8.25);
#73=CIRCLE('',#243,10.);
#74=CIRCLE('',#245,7.);
#75=CIRCLE('',#247,3.55);
#76=CIRCLE('',#249,3.55);
#77=CIRCLE('',#251,4.75);
#78=CIRCLE('',#253,5.75);
#79=CIRCLE('',#255,7.);
#80=CIRCLE('',#258,10.);
#81=CIRCLE('',#259,8.51230239293914);
#82=CIRCLE('',#260,8.51230239293914);
#83=CIRCLE('',#263,8.79);
#84=CIRCLE('',#264,0.89);
#85=CIRCLE('',#266,0.89);
#86=VERTEX_POINT('',#269);
#87=VERTEX_POINT('',#270);
#88=VERTEX_POINT('',#275);
#89=VERTEX_POINT('',#276);
#90=VERTEX_POINT('',#278);
#91=VERTEX_POINT('',#281);
#92=VERTEX_POINT('',#283);
#93=VERTEX_POINT('',#286);
#94=VERTEX_POINT('',#289);
#95=VERTEX_POINT('',#293);
#96=VERTEX_POINT('',#296);
#97=VERTEX_POINT('',#300);
#98=VERTEX_POINT('',#305);
#99=VERTEX_POINT('',#306);
#100=VERTEX_POINT('',#309);
#101=VERTEX_POINT('',#315);
#102=VECTOR('',#321,1.);
#103=VECTOR('',#333,1.);
#104=VECTOR('',#341,1.);
#105=VECTOR('',#349,1.);
#106=VECTOR('',#357,1.);
#107=VECTOR('',#360,1.);
#108=VECTOR('',#369,1.);
#109=LINE('',#268,#102);
#110=LINE('',#280,#103);
#111=LINE('',#288,#104);
#112=LINE('',#295,#105);
#113=LINE('',#302,#106);
#114=LINE('',#304,#107);
#115=LINE('',#312,#108);
#116=EDGE_CURVE('',#86,#87,#109,.T.);
#117=EDGE_CURVE('',#86,#86,#70,.T.);
#118=EDGE_CURVE('',#87,#87,#71,.T.);
#119=EDGE_CURVE('',#88,#89,#72,.T.);
#120=EDGE_CURVE('',#89,#88,#72,.T.);
#121=EDGE_CURVE('',#90,#90,#73,.T.);
#122=EDGE_CURVE('',#89,#91,#110,.T.);
#123=EDGE_CURVE('',#91,#92,#74,.T.);
#124=EDGE_CURVE('',#92,#91,#74,.T.);
#125=EDGE_CURVE('',#93,#93,#75,.T.);
#126=EDGE_CURVE('',#94,#93,#111,.T.);
#127=EDGE_CURVE('',#94,#94,#76,.T.);
#128=EDGE_CURVE('',#95,#95,#77,.T.);
#129=EDGE_CURVE('',#96,#95,#112,.T.);
#130=EDGE_CURVE('',#96,#96,#78,.T.);
#131=EDGE_CURVE('',#97,#97,#79,.T.);
#132=EDGE_CURVE('',#97,#87,#113,.T.);
#133=EDGE_CURVE('',#98,#99,#114,.T.);
#134=EDGE_CURVE('',#98,#98,#80,.T.);
#135=EDGE_CURVE('',#100,#99,#81,.T.);
#136=EDGE_CURVE('',#99,#100,#82,.T.);
#137=EDGE_CURVE('',#98,#90,#115,.T.);
#138=EDGE_CURVE('',#101,#101,#83,.T.);
#139=EDGE_CURVE('',#101,#99,#84,.T.);
#140=EDGE_CURVE('',#86,#101,#85,.T.);
#141=ORIENTED_EDGE('',*,*,#116,.F.);
#142=ORIENTED_EDGE('',*,*,#117,.F.);
#143=ORIENTED_EDGE('',*,*,#116,.T.);
#144=ORIENTED_EDGE('',*,*,#118,.F.);
#145=ORIENTED_EDGE('',*,*,#119,.T.);
#146=ORIENTED_EDGE('',*,*,#120,.T.);
#147=ORIENTED_EDGE('',*,*,#121,.F.);
#148=ORIENTED_EDGE('',*,*,#122,.F.);
#149=ORIENTED_EDGE('',*,*,#119,.F.);
#150=ORIENTED_EDGE('',*,*,#120,.F.);
#151=ORIENTED_EDGE('',*,*,#122,.T.);
#152=ORIENTED_EDGE('',*,*,#123,.T.);
#153=ORIENTED_EDGE('',*,*,#124,.T.);
#154=ORIENTED_EDGE('',*,*,#125,.T.);
#155=ORIENTED_EDGE('',*,*,#123,.F.);
#156=ORIENTED_EDGE('',*,*,#124,.F.);
#157=ORIENTED_EDGE('',*,*,#126,.F.);
#158=ORIENTED_EDGE('',*,*,#127,.T.);
#159=ORIENTED_EDGE('',*,*,#126,.T.);
#160=ORIENTED_EDGE('',*,*,#125,.F.);
#161=ORIENTED_EDGE('',*,*,#128,.T.);
#162=ORIENTED_EDGE('',*,*,#127,.F.);
#163=ORIENTED_EDGE('',*,*,#129,.F.);
#164=ORIENTED_EDGE('',*,*,#130,.T.);
#165=ORIENTED_EDGE('',*,*,#129,.T.);
#166=ORIENTED_EDGE('',*,*,#128,.F.);
#167=ORIENTED_EDGE('',*,*,#131,.T.);
#168=ORIENTED_EDGE('',*,*,#130,.F.);
#169=ORIENTED_EDGE('',*,*,#132,.T.);
#170=ORIENTED_EDGE('',*,*,#118,.T.);
#171=ORIENTED_EDGE('',*,*,#132,.F.);
#172=ORIENTED_EDGE('',*,*,#131,.F.);
#173=ORIENTED_EDGE('',*,*,#133,.F.);
#174=ORIENTED_EDGE('',*,*,#134,.T.);
#175=ORIENTED_EDGE('',*,*,#133,.T.);
#176=ORIENTED_EDGE('',*,*,#135,.F.);
#177=ORIENTED_EDGE('',*,*,#136,.F.);
#178=ORIENTED_EDGE('',*,*,#137,.T.);
#179=ORIENTED_EDGE('',*,*,#121,.T.);
#180=ORIENTED_EDGE('',*,*,#137,.F.);
#181=ORIENTED_EDGE('',*,*,#134,.F.);
#182=ORIENTED_EDGE('',*,*,#138,.T.);
#183=ORIENTED_EDGE('',*,*,#139,.T.);
#184=ORIENTED_EDGE('',*,*,#136,.T.);
#185=ORIENTED_EDGE('',*,*,#135,.T.);
#186=ORIENTED_EDGE('',*,*,#139,.F.);
#187=ORIENTED_EDGE('',*,*,#138,.F.);
#188=ORIENTED_EDGE('',*,*,#140,.F.);
#189=ORIENTED_EDGE('',*,*,#117,.T.);
#190=ORIENTED_EDGE('',*,*,#140,.T.);
#191=EDGE_LOOP('',(#141,#142,#143,#144));
#192=EDGE_LOOP('',(#145,#146));
#193=EDGE_LOOP('',(#147));
#194=EDGE_LOOP('',(#148,#149,#150,#151,#152,#153));
#195=EDGE_LOOP('',(#154));
#196=EDGE_LOOP('',(#155,#156));
#197=EDGE_LOOP('',(#157,#158,#159,#160));
#198=EDGE_LOOP('',(#161));
#199=EDGE_LOOP('',(#162));
#200=EDGE_LOOP('',(#163,#164,#165,#166));
#201=EDGE_LOOP('',(#167));
#202=EDGE_LOOP('',(#168));
#203=EDGE_LOOP('',(#169,#170,#171,#172));
#204=EDGE_LOOP('',(#173,#174,#175,#176,#177));
#205=EDGE_LOOP('',(#178,#179,#180,#181));
#206=EDGE_LOOP('',(#182,#183,#184,#185,#186));
#207=EDGE_LOOP('',(#187,#188,#189,#190));
#208=FACE_BOUND('',#191,.T.);
#209=FACE_BOUND('',#192,.T.);
#210=FACE_BOUND('',#193,.T.);
#211=FACE_BOUND('',#194,.T.);
#212=FACE_BOUND('',#195,.T.);
#213=FACE_BOUND('',#196,.T.);
#214=FACE_BOUND('',#197,.T.);
#215=FACE_BOUND('',#198,.T.);
#216=FACE_BOUND('',#199,.T.);
#217=FACE_BOUND('',#200,.T.);
#218=FACE_BOUND('',#201,.T.);
#219=FACE_BOUND('',#202,.T.);
#220=FACE_BOUND('',#203,.T.);
#221=FACE_BOUND('',#204,.T.);
#222=FACE_BOUND('',#205,.T.);
#223=FACE_BOUND('',#206,.T.);
#224=FACE_BOUND('',#207,.T.);
#225=ADVANCED_FACE('',(#208),#378,.F.);
#226=ADVANCED_FACE('',(#209,#210),#66,.T.);
#227=ADVANCED_FACE('',(#211),#379,.F.);
#228=ADVANCED_FACE('',(#212,#213),#67,.T.);
#229=ADVANCED_FACE('',(#214),#63,.F.);
#230=ADVANCED_FACE('',(#215,#216),#68,.T.);
#231=ADVANCED_FACE('',(#217),#380,.F.);
#232=ADVANCED_FACE('',(#218,#219),#69,.T.);
#233=ADVANCED_FACE('',(#220),#64,.T.);
#234=ADVANCED_FACE('',(#221),#381,.F.);
#235=ADVANCED_FACE('',(#222),#65,.T.);
#236=ADVANCED_FACE('',(#223),#61,.T.);
#237=ADVANCED_FACE('',(#224),#62,.T.);
#238=AXIS2_PLACEMENT_3D('',#267,#319,#320);
#239=AXIS2_PLACEMENT_3D('',#271,#322,#323);
#240=AXIS2_PLACEMENT_3D('',#272,#324,#325);
#241=AXIS2_PLACEMENT_3D('',#273,#326,$);
#242=AXIS2_PLACEMENT_3D('',#274,#327,#328);
#243=AXIS2_PLACEMENT_3D('',#277,#329,#330);
#244=AXIS2_PLACEMENT_3D('',#279,#331,#332);
#245=AXIS2_PLACEMENT_3D('',#282,#334,#335);
#246=AXIS2_PLACEMENT_3D('',#284,#336,$);
#247=AXIS2_PLACEMENT_3D('',#285,#337,#338);
#248=AXIS2_PLACEMENT_3D('',#287,#339,#340);
#249=AXIS2_PLACEMENT_3D('',#290,#342,#343);
#250=AXIS2_PLACEMENT_3D('',#291,#344,$);
#251=AXIS2_PLACEMENT_3D('',#292,#345,#346);
#252=AXIS2_PLACEMENT_3D('',#294,#347,#348);
#253=AXIS2_PLACEMENT_3D('',#297,#350,#351);
#254=AXIS2_PLACEMENT_3D('',#298,#352,$);
#255=AXIS2_PLACEMENT_3D('',#299,#353,#354);
#256=AXIS2_PLACEMENT_3D('',#301,#355,#356);
#257=AXIS2_PLACEMENT_3D('',#303,#358,#359);
#258=AXIS2_PLACEMENT_3D('',#307,#361,#362);
#259=AXIS2_PLACEMENT_3D('',#308,#363,#364);
#260=AXIS2_PLACEMENT_3D('',#310,#365,#366);
#261=AXIS2_PLACEMENT_3D('',#311,#367,#368);
#262=AXIS2_PLACEMENT_3D('',#313,#370,$);
#263=AXIS2_PLACEMENT_3D('',#314,#371,#372);
#264=AXIS2_PLACEMENT_3D('',#316,#373,#374);
#265=AXIS2_PLACEMENT_3D('',#317,#375,$);
#266=AXIS2_PLACEMENT_3D('',#318,#376,#377);
#267=CARTESIAN_POINT('',(3.3,0.,0.));
#268=CARTESIAN_POINT('',(3.53930928211826,0.,-7.71792784635476));
#269=CARTESIAN_POINT('',(3.56589920235363,3.46287336896939E-15,-7.79769760706086));
#270=CARTESIAN_POINT('',(3.3,-8.57252759403147E-16,-7.));
#271=CARTESIAN_POINT('',(3.56589920235362,0.,0.));
#272=CARTESIAN_POINT('',(3.3,0.,0.));
#273=CARTESIAN_POINT('',(0.,10.,0.));
#274=CARTESIAN_POINT('',(0.,0.,0.));
#275=CARTESIAN_POINT('',(4.44089209850063E-16,-5.05166804648283E-16,-8.25));
#276=CARTESIAN_POINT('',(8.88178419700125E-16,8.88178419700125E-16,8.25));
#277=CARTESIAN_POINT('',(0.,0.,0.));
#278=CARTESIAN_POINT('',(0.,-1.22464679914735E-15,-10.));
#279=CARTESIAN_POINT('',(0.,0.,0.));
#280=CARTESIAN_POINT('',(1.43,0.,6.875));
#281=CARTESIAN_POINT('',(1.3,4.44089209850063E-16,7.));
#282=CARTESIAN_POINT('',(1.3,0.,0.));
#283=CARTESIAN_POINT('',(1.3,-4.28626379701574E-16,-7.));
#284=CARTESIAN_POINT('',(1.3,7.,0.));
#285=CARTESIAN_POINT('',(1.3,0.,0.));
#286=CARTESIAN_POINT('',(1.3,-4.3474961369731E-16,-3.55));
#287=CARTESIAN_POINT('',(5.4,0.,0.));
#288=CARTESIAN_POINT('',(0.300000000000001,0.,-3.55));
#289=CARTESIAN_POINT('',(4.4,-4.3474961369731E-16,-3.55));
#290=CARTESIAN_POINT('',(4.4,0.,0.));
#291=CARTESIAN_POINT('',(4.4,3.55,0.));
#292=CARTESIAN_POINT('',(4.4,0.,0.));
#293=CARTESIAN_POINT('',(4.4,-5.81707229594993E-16,-4.75));
#294=CARTESIAN_POINT('',(4.4,0.,0.));
#295=CARTESIAN_POINT('',(5.3,0.,-5.65));
#296=CARTESIAN_POINT('',(5.4,-7.04171909509728E-16,-5.75));
#297=CARTESIAN_POINT('',(5.4,0.,0.));
#298=CARTESIAN_POINT('',(5.4,5.75,0.));
#299=CARTESIAN_POINT('',(5.4,0.,0.));
#300=CARTESIAN_POINT('',(5.4,-8.57252759403147E-16,-7.));
#301=CARTESIAN_POINT('',(5.4,0.,0.));
#302=CARTESIAN_POINT('',(3.3,0.,-7.));
#303=CARTESIAN_POINT('',(3.3,0.,0.));
#304=CARTESIAN_POINT('',(4.75451087741102,0.,-11.363532632233));
#305=CARTESIAN_POINT('',(4.3,-1.22464679914735E-15,-9.99999999999998));
#306=CARTESIAN_POINT('',(3.80410079764639,-5.21228193944364E-16,-8.51230239293913));
#307=CARTESIAN_POINT('',(4.3,0.,0.));
#308=CARTESIAN_POINT('',(3.80410079764638,0.,0.));
#309=CARTESIAN_POINT('',(3.80410079764639,-9.77698034922231E-15,8.51230239293913));
#310=CARTESIAN_POINT('',(3.80410079764638,0.,0.));
#311=CARTESIAN_POINT('',(5.4,0.,0.));
#312=CARTESIAN_POINT('',(-1.1,0.,-10.));
#313=CARTESIAN_POINT('',(4.45,0.,0.));
#314=CARTESIAN_POINT('',(4.45,0.,0.));
#315=CARTESIAN_POINT('',(4.45,1.07646453645052E-15,-8.79));
#316=CARTESIAN_POINT('',(4.45,0.,-7.9));
#317=CARTESIAN_POINT('',(4.45,0.,0.));
#318=CARTESIAN_POINT('',(4.45,0.,-7.9));
#319=DIRECTION('',(1.,0.,0.));
#320=DIRECTION('',(0.,0.,-7.));
#321=DIRECTION('',(-0.316227766016842,0.,0.948683298050512));
#322=DIRECTION('',(-1.,0.,0.));
#323=DIRECTION('',(0.,0.,-7.79769760706087));
#324=DIRECTION('',(1.,0.,0.));
#325=DIRECTION('',(0.,0.,-7.));
#326=DIRECTION('',(-1.,0.,0.));
#327=DIRECTION('',(1.,0.,0.));
#328=DIRECTION('',(0.,0.,-8.25));
#329=DIRECTION('',(1.,0.,0.));
#330=DIRECTION('',(0.,0.,-10.));
#331=DIRECTION('',(-1.,0.,0.));
#332=DIRECTION('',(0.,0.,8.25));
#333=DIRECTION('',(0.720833064901856,0.,-0.693108716251785));
#334=DIRECTION('',(1.,0.,0.));
#335=DIRECTION('',(0.,0.,-7.));
#336=DIRECTION('',(-1.,0.,0.));
#337=DIRECTION('',(1.,0.,0.));
#338=DIRECTION('',(0.,0.,-3.55));
#339=DIRECTION('',(1.,0.,0.));
#340=DIRECTION('',(0.,0.,-3.55));
#341=DIRECTION('',(-1.,0.,0.));
#342=DIRECTION('',(1.,0.,0.));
#343=DIRECTION('',(0.,0.,-3.55));
#344=DIRECTION('',(1.,0.,0.));
#345=DIRECTION('',(1.,0.,0.));
#346=DIRECTION('',(0.,0.,-4.75));
#347=DIRECTION('',(1.,0.,0.));
#348=DIRECTION('',(0.,0.,-4.75));
#349=DIRECTION('',(-0.707106781186548,0.,0.707106781186547));
#350=DIRECTION('',(1.,0.,0.));
#351=DIRECTION('',(0.,0.,-5.75));
#352=DIRECTION('',(1.,0.,0.));
#353=DIRECTION('',(1.,0.,0.));
#354=DIRECTION('',(0.,0.,-7.));
#355=DIRECTION('',(1.,0.,0.));
#356=DIRECTION('',(0.,0.,-7.));
#357=DIRECTION('',(-1.,0.,0.));
#358=DIRECTION('',(1.,0.,0.));
#359=DIRECTION('',(0.,0.,-7.));
#360=DIRECTION('',(-0.316227766016842,0.,0.948683298050512));
#361=DIRECTION('',(1.,0.,0.));
#362=DIRECTION('',(0.,0.,-10.));
#363=DIRECTION('',(1.,0.,0.));
#364=DIRECTION('',(0.,0.,8.51230239293914));
#365=DIRECTION('',(1.,0.,0.));
#366=DIRECTION('',(0.,0.,8.51230239293914));
#367=DIRECTION('',(1.,0.,0.));
#368=DIRECTION('',(0.,0.,-10.));
#369=DIRECTION('',(-1.,0.,0.));
#370=DIRECTION('',(1.,0.,0.));
#371=DIRECTION('',(-1.,0.,0.));
#372=DIRECTION('',(0.,0.,-8.79));
#373=DIRECTION('',(0.,1.,0.));
#374=DIRECTION('',(0.,0.,-0.89));
#375=DIRECTION('',(1.,0.,0.));
#376=DIRECTION('',(0.,1.,0.));
#377=DIRECTION('',(0.,0.,-0.89));
#378=CONICAL_SURFACE('',#238,7.,1.24904577239825);
#379=CONICAL_SURFACE('',#244,8.25,0.765792832540244);
#380=CONICAL_SURFACE('',#252,4.75,0.785398163397448);
#381=CONICAL_SURFACE('',#257,7.,1.24904577239825);
#382=CLOSED_SHELL('',(#225,#226,#227,#228,#229,#230,#231,#232,#233,#234,
#235,#236,#237));
#383=MANIFOLD_SOLID_BREP('',#382);
#384=ADVANCED_BREP_SHAPE_REPRESENTATION('',(#383),#60);
ENDSEC;
END-ISO-10303-21;
