ISO-10303-21;
HEADER;

/* File generated by Alibre Version V23 */

FILE_DESCRIPTION(('HOOPS Exchange Step'),'2;1');

FILE_NAME('C:\\Users\\Gebruiker\\AppData\\Local\\Temp\\Alibre Design\\export-07F4820F-4A4A-4891-928F-AA06D0018A14.stp',
'2022-11-09T16:49:36+01:00',
('Engineering'),
('Alibre'),
'HOOPS Exchange 2021.0',
'Alibre',
'Unknown authorisation');

FILE_SCHEMA( ('AP242_MANAGED_MODEL_BASED_3D_ENGINEERING_MIM_LF {1 0 10303 442 1 1 4 }') );

ENDSEC;

DATA;
#3=(NAMED_UNIT(*)PLANE_ANGLE_UNIT()SI_UNIT($,.RADIAN.));
#4=PLANE_ANGLE_MEASURE_WITH_UNIT(PLANE_ANGLE_MEASURE(0.0174532925),#3);
#5=(CONVERSION_BASED_UNIT('DEGREE',#4)NAMED_UNIT(#6)PLANE_ANGLE_UNIT());
#6=DIMENSIONAL_EXPONENTS(0.,0.,0.,0.,0.,0.,0.);
#7=(NAMED_UNIT(*)SI_UNIT($,.STERADIAN.)SOLID_ANGLE_UNIT());
#8=(LENGTH_UNIT()NAMED_UNIT(*)SI_UNIT(.MILLI.,.METRE.));
#9=UNCERTAINTY_MEASURE_WITH_UNIT(LENGTH_MEASURE(1.000000E-06),#8,'DISTANCE_ACCURACY_VALUE','Maximum Tolerance applied to model');
#10=(GEOMETRIC_REPRESENTATION_CONTEXT(3)GLOBAL_UNCERTAINTY_ASSIGNED_CONTEXT((#9))GLOBAL_UNIT_ASSIGNED_CONTEXT((#8,#5,#7))REPRESENTATION_CONTEXT('','6112 0222100100 Coil Protection Kit, Coil 22, 8mm, IP65'));
#12=CARTESIAN_POINT('',(0.,0.,0.));
#13=DIRECTION('',(0.,0.,1.));
#14=DIRECTION('',(1.,0.,0.));
#15=AXIS2_PLACEMENT_3D('',#12,#13,#14);
#27=CARTESIAN_POINT('',(3.3,0.,0.));
#28=DIRECTION('',(1.,0.,0.));
#29=DIRECTION('',(0.,0.,-1.));
#30=AXIS2_PLACEMENT_3D('',#27,#28,#29);
#31=CONICAL_SURFACE('',#30,7.,71.565051177);
#32=CARTESIAN_POINT('',(3.565899202,0.,7.797697607));
#33=VERTEX_POINT('',#32);
#34=CARTESIAN_POINT('',(3.3,0.,7.));
#35=VERTEX_POINT('',#34);
#36=CARTESIAN_POINT('',(3.565899202,0.,7.797697607));
#37=DIRECTION('',(-0.316227766,-0.,-0.948683298));
#38=VECTOR('',#37,0.840847107);
#39=LINE('',#36,#38);
#40=EDGE_CURVE('',#33,#35,#39,.T.);
#41=ORIENTED_EDGE('',*,*,#40,.F.);
#42=CARTESIAN_POINT('',(3.565899202,0.,-7.797697607));
#43=VERTEX_POINT('',#42);
#44=CARTESIAN_POINT('',(3.565899202,0.,0.));
#45=DIRECTION('',(-1.,0.,-0.));
#46=DIRECTION('',(0.,0.,-1.));
#47=AXIS2_PLACEMENT_3D('',#44,#45,#46);
#48=CIRCLE('',#47,7.797697607);
#49=EDGE_CURVE('',#43,#33,#48,.T.);
#50=ORIENTED_EDGE('',*,*,#49,.F.);
#51=CARTESIAN_POINT('',(3.3,-0.,-7.));
#52=VERTEX_POINT('',#51);
#53=CARTESIAN_POINT('',(3.565899202,0.,-7.797697607));
#54=DIRECTION('',(-0.316227766,-0.,0.948683298));
#55=VECTOR('',#54,0.840847107);
#56=LINE('',#53,#55);
#57=EDGE_CURVE('',#43,#52,#56,.T.);
#58=ORIENTED_EDGE('',*,*,#57,.T.);
#59=CARTESIAN_POINT('',(3.3,0.,0.));
#60=DIRECTION('',(1.,0.,0.));
#61=DIRECTION('',(0.,0.,-1.));
#62=AXIS2_PLACEMENT_3D('',#59,#60,#61);
#63=CIRCLE('',#62,7.);
#64=EDGE_CURVE('',#35,#52,#63,.T.);
#65=ORIENTED_EDGE('',*,*,#64,.F.);
#66=EDGE_LOOP('',(#41,#50,#58,#65));
#67=FACE_BOUND('',#66,.T.);
#68=ADVANCED_FACE('',(#67),#31,.F.);
#69=CARTESIAN_POINT('',(0.,10.,0.));
#70=DIRECTION('',(-1.,0.,0.));
#71=DIRECTION('',(0.,0.,1.));
#72=AXIS2_PLACEMENT_3D('',#69,#70,#71);
#73=PLANE('',#72);
#74=CARTESIAN_POINT('',(0.,-0.,-8.25));
#75=VERTEX_POINT('',#74);
#76=CARTESIAN_POINT('',(0.,0.,8.25));
#77=VERTEX_POINT('',#76);
#78=CARTESIAN_POINT('',(0.,0.,0.));
#79=DIRECTION('',(1.,0.,0.));
#80=DIRECTION('',(0.,0.,-1.));
#81=AXIS2_PLACEMENT_3D('',#78,#79,#80);
#82=CIRCLE('',#81,8.25);
#83=EDGE_CURVE('',#75,#77,#82,.T.);
#84=ORIENTED_EDGE('',*,*,#83,.T.);
#85=CARTESIAN_POINT('',(0.,0.,0.));
#86=DIRECTION('',(1.,0.,0.));
#87=DIRECTION('',(0.,0.,-1.));
#88=AXIS2_PLACEMENT_3D('',#85,#86,#87);
#89=CIRCLE('',#88,8.25);
#90=EDGE_CURVE('',#77,#75,#89,.T.);
#91=ORIENTED_EDGE('',*,*,#90,.T.);
#92=EDGE_LOOP('',(#84,#91));
#93=FACE_BOUND('',#92,.T.);
#94=CARTESIAN_POINT('',(0.,0.,10.));
#95=VERTEX_POINT('',#94);
#96=CARTESIAN_POINT('',(0.,-0.,-10.));
#97=VERTEX_POINT('',#96);
#98=CARTESIAN_POINT('',(0.,0.,0.));
#99=DIRECTION('',(1.,0.,0.));
#100=DIRECTION('',(0.,0.,-1.));
#101=AXIS2_PLACEMENT_3D('',#98,#99,#100);
#102=CIRCLE('',#101,10.);
#103=EDGE_CURVE('',#95,#97,#102,.T.);
#104=ORIENTED_EDGE('',*,*,#103,.F.);
#105=CARTESIAN_POINT('',(0.,0.,0.));
#106=DIRECTION('',(1.,0.,0.));
#107=DIRECTION('',(0.,0.,-1.));
#108=AXIS2_PLACEMENT_3D('',#105,#106,#107);
#109=CIRCLE('',#108,10.);
#110=EDGE_CURVE('',#97,#95,#109,.T.);
#111=ORIENTED_EDGE('',*,*,#110,.F.);
#112=EDGE_LOOP('',(#104,#111));
#113=FACE_BOUND('',#112,.T.);
#114=ADVANCED_FACE('',(#93,#113),#73,.T.);
#115=CARTESIAN_POINT('',(0.,0.,0.));
#116=DIRECTION('',(-1.,0.,0.));
#117=DIRECTION('',(0.,0.,1.));
#118=AXIS2_PLACEMENT_3D('',#115,#116,#117);
#119=CONICAL_SURFACE('',#118,8.25,43.876697286);
#120=CARTESIAN_POINT('',(1.3,-0.,-7.));
#121=VERTEX_POINT('',#120);
#122=CARTESIAN_POINT('',(0.,0.,-8.25));
#123=DIRECTION('',(0.720833065,-0.,0.693108716));
#124=VECTOR('',#123,1.80346888);
#125=LINE('',#122,#124);
#126=EDGE_CURVE('',#75,#121,#125,.T.);
#127=ORIENTED_EDGE('',*,*,#126,.F.);
#128=ORIENTED_EDGE('',*,*,#90,.F.);
#129=CARTESIAN_POINT('',(1.3,0.,7.));
#130=VERTEX_POINT('',#129);
#131=CARTESIAN_POINT('',(-0.,0.,8.25));
#132=DIRECTION('',(0.720833065,0.,-0.693108716));
#133=VECTOR('',#132,1.80346888);
#134=LINE('',#131,#133);
#135=EDGE_CURVE('',#77,#130,#134,.T.);
#136=ORIENTED_EDGE('',*,*,#135,.T.);
#137=CARTESIAN_POINT('',(1.3,0.,0.));
#138=DIRECTION('',(1.,0.,0.));
#139=DIRECTION('',(0.,0.,-1.));
#140=AXIS2_PLACEMENT_3D('',#137,#138,#139);
#141=CIRCLE('',#140,7.);
#142=EDGE_CURVE('',#130,#121,#141,.T.);
#143=ORIENTED_EDGE('',*,*,#142,.T.);
#144=EDGE_LOOP('',(#127,#128,#136,#143));
#145=FACE_BOUND('',#144,.T.);
#146=ADVANCED_FACE('',(#145),#119,.F.);
#147=CARTESIAN_POINT('',(1.3,7.,0.));
#148=DIRECTION('',(-1.,0.,0.));
#149=DIRECTION('',(0.,0.,1.));
#150=AXIS2_PLACEMENT_3D('',#147,#148,#149);
#151=PLANE('',#150);
#152=CARTESIAN_POINT('',(1.3,-0.,-3.55));
#153=VERTEX_POINT('',#152);
#154=CARTESIAN_POINT('',(1.3,0.,3.55));
#155=VERTEX_POINT('',#154);
#156=CARTESIAN_POINT('',(1.3,0.,0.));
#157=DIRECTION('',(1.,0.,0.));
#158=DIRECTION('',(0.,0.,-1.));
#159=AXIS2_PLACEMENT_3D('',#156,#157,#158);
#160=CIRCLE('',#159,3.55);
#161=EDGE_CURVE('',#153,#155,#160,.T.);
#162=ORIENTED_EDGE('',*,*,#161,.T.);
#163=CARTESIAN_POINT('',(1.3,0.,0.));
#164=DIRECTION('',(1.,0.,0.));
#165=DIRECTION('',(0.,0.,-1.));
#166=AXIS2_PLACEMENT_3D('',#163,#164,#165);
#167=CIRCLE('',#166,3.55);
#168=EDGE_CURVE('',#155,#153,#167,.T.);
#169=ORIENTED_EDGE('',*,*,#168,.T.);
#170=EDGE_LOOP('',(#162,#169));
#171=FACE_BOUND('',#170,.T.);
#172=ORIENTED_EDGE('',*,*,#142,.F.);
#173=CARTESIAN_POINT('',(1.3,0.,0.));
#174=DIRECTION('',(1.,0.,0.));
#175=DIRECTION('',(0.,0.,-1.));
#176=AXIS2_PLACEMENT_3D('',#173,#174,#175);
#177=CIRCLE('',#176,7.);
#178=EDGE_CURVE('',#121,#130,#177,.T.);
#179=ORIENTED_EDGE('',*,*,#178,.F.);
#180=EDGE_LOOP('',(#172,#179));
#181=FACE_BOUND('',#180,.T.);
#182=ADVANCED_FACE('',(#171,#181),#151,.T.);
#183=CARTESIAN_POINT('',(5.4,0.,0.));
#184=DIRECTION('',(1.,0.,0.));
#185=DIRECTION('',(0.,0.,-1.));
#186=AXIS2_PLACEMENT_3D('',#183,#184,#185);
#187=CYLINDRICAL_SURFACE('',#186,3.55);
#188=CARTESIAN_POINT('',(4.4,0.,3.55));
#189=VERTEX_POINT('',#188);
#190=CARTESIAN_POINT('',(4.4,0.,3.55));
#191=DIRECTION('',(-1.,-0.,0.));
#192=VECTOR('',#191,3.1);
#193=LINE('',#190,#192);
#194=EDGE_CURVE('',#189,#155,#193,.T.);
#195=ORIENTED_EDGE('',*,*,#194,.F.);
#196=CARTESIAN_POINT('',(4.4,-0.,-3.55));
#197=VERTEX_POINT('',#196);
#198=CARTESIAN_POINT('',(4.4,0.,0.));
#199=DIRECTION('',(1.,0.,0.));
#200=DIRECTION('',(0.,0.,-1.));
#201=AXIS2_PLACEMENT_3D('',#198,#199,#200);
#202=CIRCLE('',#201,3.55);
#203=EDGE_CURVE('',#189,#197,#202,.T.);
#204=ORIENTED_EDGE('',*,*,#203,.T.);
#205=CARTESIAN_POINT('',(4.4,0.,-3.55));
#206=DIRECTION('',(-1.,-0.,0.));
#207=VECTOR('',#206,3.1);
#208=LINE('',#205,#207);
#209=EDGE_CURVE('',#197,#153,#208,.T.);
#210=ORIENTED_EDGE('',*,*,#209,.T.);
#211=ORIENTED_EDGE('',*,*,#168,.F.);
#212=EDGE_LOOP('',(#195,#204,#210,#211));
#213=FACE_BOUND('',#212,.T.);
#214=ADVANCED_FACE('',(#213),#187,.F.);
#215=CARTESIAN_POINT('',(4.4,3.55,0.));
#216=DIRECTION('',(1.,0.,0.));
#217=DIRECTION('',(0.,0.,-1.));
#218=AXIS2_PLACEMENT_3D('',#215,#216,#217);
#219=PLANE('',#218);
#220=CARTESIAN_POINT('',(4.4,-0.,-4.75));
#221=VERTEX_POINT('',#220);
#222=CARTESIAN_POINT('',(4.4,0.,4.75));
#223=VERTEX_POINT('',#222);
#224=CARTESIAN_POINT('',(4.4,0.,0.));
#225=DIRECTION('',(1.,0.,0.));
#226=DIRECTION('',(0.,0.,-1.));
#227=AXIS2_PLACEMENT_3D('',#224,#225,#226);
#228=CIRCLE('',#227,4.75);
#229=EDGE_CURVE('',#221,#223,#228,.T.);
#230=ORIENTED_EDGE('',*,*,#229,.T.);
#231=CARTESIAN_POINT('',(4.4,0.,0.));
#232=DIRECTION('',(1.,0.,0.));
#233=DIRECTION('',(0.,0.,-1.));
#234=AXIS2_PLACEMENT_3D('',#231,#232,#233);
#235=CIRCLE('',#234,4.75);
#236=EDGE_CURVE('',#223,#221,#235,.T.);
#237=ORIENTED_EDGE('',*,*,#236,.T.);
#238=EDGE_LOOP('',(#230,#237));
#239=FACE_BOUND('',#238,.T.);
#240=ORIENTED_EDGE('',*,*,#203,.F.);
#241=CARTESIAN_POINT('',(4.4,0.,0.));
#242=DIRECTION('',(1.,0.,0.));
#243=DIRECTION('',(0.,0.,-1.));
#244=AXIS2_PLACEMENT_3D('',#241,#242,#243);
#245=CIRCLE('',#244,3.55);
#246=EDGE_CURVE('',#197,#189,#245,.T.);
#247=ORIENTED_EDGE('',*,*,#246,.F.);
#248=EDGE_LOOP('',(#240,#247));
#249=FACE_BOUND('',#248,.T.);
#250=ADVANCED_FACE('',(#239,#249),#219,.T.);
#251=CARTESIAN_POINT('',(4.4,0.,0.));
#252=DIRECTION('',(1.,0.,0.));
#253=DIRECTION('',(0.,0.,-1.));
#254=AXIS2_PLACEMENT_3D('',#251,#252,#253);
#255=CONICAL_SURFACE('',#254,4.75,45.);
#256=CARTESIAN_POINT('',(5.4,0.,5.75));
#257=VERTEX_POINT('',#256);
#258=CARTESIAN_POINT('',(5.4,0.,5.75));
#259=DIRECTION('',(-0.707106781,-0.,-0.707106781));
#260=VECTOR('',#259,1.414213562);
#261=LINE('',#258,#260);
#262=EDGE_CURVE('',#257,#223,#261,.T.);
#263=ORIENTED_EDGE('',*,*,#262,.F.);
#264=CARTESIAN_POINT('',(5.4,-0.,-5.75));
#265=VERTEX_POINT('',#264);
#266=CARTESIAN_POINT('',(5.4,0.,0.));
#267=DIRECTION('',(1.,0.,0.));
#268=DIRECTION('',(0.,0.,-1.));
#269=AXIS2_PLACEMENT_3D('',#266,#267,#268);
#270=CIRCLE('',#269,5.75);
#271=EDGE_CURVE('',#257,#265,#270,.T.);
#272=ORIENTED_EDGE('',*,*,#271,.T.);
#273=CARTESIAN_POINT('',(5.4,0.,-5.75));
#274=DIRECTION('',(-0.707106781,-0.,0.707106781));
#275=VECTOR('',#274,1.414213562);
#276=LINE('',#273,#275);
#277=EDGE_CURVE('',#265,#221,#276,.T.);
#278=ORIENTED_EDGE('',*,*,#277,.T.);
#279=ORIENTED_EDGE('',*,*,#236,.F.);
#280=EDGE_LOOP('',(#263,#272,#278,#279));
#281=FACE_BOUND('',#280,.T.);
#282=ADVANCED_FACE('',(#281),#255,.F.);
#283=CARTESIAN_POINT('',(5.4,5.75,0.));
#284=DIRECTION('',(1.,0.,0.));
#285=DIRECTION('',(0.,0.,-1.));
#286=AXIS2_PLACEMENT_3D('',#283,#284,#285);
#287=PLANE('',#286);
#288=CARTESIAN_POINT('',(5.4,-0.,-7.));
#289=VERTEX_POINT('',#288);
#290=CARTESIAN_POINT('',(5.4,0.,7.));
#291=VERTEX_POINT('',#290);
#292=CARTESIAN_POINT('',(5.4,0.,0.));
#293=DIRECTION('',(1.,0.,0.));
#294=DIRECTION('',(0.,0.,-1.));
#295=AXIS2_PLACEMENT_3D('',#292,#293,#294);
#296=CIRCLE('',#295,7.);
#297=EDGE_CURVE('',#289,#291,#296,.T.);
#298=ORIENTED_EDGE('',*,*,#297,.T.);
#299=CARTESIAN_POINT('',(5.4,0.,0.));
#300=DIRECTION('',(1.,0.,0.));
#301=DIRECTION('',(0.,0.,-1.));
#302=AXIS2_PLACEMENT_3D('',#299,#300,#301);
#303=CIRCLE('',#302,7.);
#304=EDGE_CURVE('',#291,#289,#303,.T.);
#305=ORIENTED_EDGE('',*,*,#304,.T.);
#306=EDGE_LOOP('',(#298,#305));
#307=FACE_BOUND('',#306,.T.);
#308=ORIENTED_EDGE('',*,*,#271,.F.);
#309=CARTESIAN_POINT('',(5.4,0.,0.));
#310=DIRECTION('',(1.,0.,0.));
#311=DIRECTION('',(0.,0.,-1.));
#312=AXIS2_PLACEMENT_3D('',#309,#310,#311);
#313=CIRCLE('',#312,5.75);
#314=EDGE_CURVE('',#265,#257,#313,.T.);
#315=ORIENTED_EDGE('',*,*,#314,.F.);
#316=EDGE_LOOP('',(#308,#315));
#317=FACE_BOUND('',#316,.T.);
#318=ADVANCED_FACE('',(#307,#317),#287,.T.);
#319=CARTESIAN_POINT('',(5.4,0.,0.));
#320=DIRECTION('',(1.,0.,0.));
#321=DIRECTION('',(0.,0.,-1.));
#322=AXIS2_PLACEMENT_3D('',#319,#320,#321);
#323=CYLINDRICAL_SURFACE('',#322,7.);
#324=CARTESIAN_POINT('',(5.4,0.,7.));
#325=DIRECTION('',(-1.,-0.,0.));
#326=VECTOR('',#325,2.1);
#327=LINE('',#324,#326);
#328=EDGE_CURVE('',#291,#35,#327,.T.);
#329=ORIENTED_EDGE('',*,*,#328,.T.);
#330=ORIENTED_EDGE('',*,*,#64,.T.);
#331=CARTESIAN_POINT('',(5.4,0.,-7.));
#332=DIRECTION('',(-1.,-0.,0.));
#333=VECTOR('',#332,2.1);
#334=LINE('',#331,#333);
#335=EDGE_CURVE('',#289,#52,#334,.T.);
#336=ORIENTED_EDGE('',*,*,#335,.F.);
#337=ORIENTED_EDGE('',*,*,#304,.F.);
#338=EDGE_LOOP('',(#329,#330,#336,#337));
#339=FACE_BOUND('',#338,.T.);
#340=ADVANCED_FACE('',(#339),#323,.T.);
#341=CARTESIAN_POINT('',(3.3,0.,0.));
#342=DIRECTION('',(1.,0.,0.));
#343=DIRECTION('',(0.,0.,-1.));
#344=AXIS2_PLACEMENT_3D('',#341,#342,#343);
#345=CONICAL_SURFACE('',#344,7.,71.565051177);
#346=CARTESIAN_POINT('',(4.3,0.,10.));
#347=VERTEX_POINT('',#346);
#348=CARTESIAN_POINT('',(3.804100798,-0.,8.512302393));
#349=VERTEX_POINT('',#348);
#350=CARTESIAN_POINT('',(4.3,0.,10.));
#351=DIRECTION('',(-0.316227766,-0.,-0.948683298));
#352=VECTOR('',#351,1.568170969);
#353=LINE('',#350,#352);
#354=EDGE_CURVE('',#347,#349,#353,.T.);
#355=ORIENTED_EDGE('',*,*,#354,.F.);
#356=CARTESIAN_POINT('',(4.3,-0.,-10.));
#357=VERTEX_POINT('',#356);
#358=CARTESIAN_POINT('',(4.3,0.,0.));
#359=DIRECTION('',(1.,0.,0.));
#360=DIRECTION('',(0.,0.,-1.));
#361=AXIS2_PLACEMENT_3D('',#358,#359,#360);
#362=CIRCLE('',#361,10.);
#363=EDGE_CURVE('',#347,#357,#362,.T.);
#364=ORIENTED_EDGE('',*,*,#363,.T.);
#365=CARTESIAN_POINT('',(3.804100798,-0.,-8.512302393));
#366=VERTEX_POINT('',#365);
#367=CARTESIAN_POINT('',(4.3,0.,-10.));
#368=DIRECTION('',(-0.316227766,-0.,0.948683298));
#369=VECTOR('',#368,1.568170969);
#370=LINE('',#367,#369);
#371=EDGE_CURVE('',#357,#366,#370,.T.);
#372=ORIENTED_EDGE('',*,*,#371,.T.);
#373=CARTESIAN_POINT('',(3.804100798,0.,0.));
#374=DIRECTION('',(1.,-0.,0.));
#375=DIRECTION('',(0.,0.,1.));
#376=AXIS2_PLACEMENT_3D('',#373,#374,#375);
#377=CIRCLE('',#376,8.512302393);
#378=EDGE_CURVE('',#349,#366,#377,.T.);
#379=ORIENTED_EDGE('',*,*,#378,.F.);
#380=EDGE_LOOP('',(#355,#364,#372,#379));
#381=FACE_BOUND('',#380,.T.);
#382=ADVANCED_FACE('',(#381),#345,.F.);
#383=CARTESIAN_POINT('',(5.4,0.,0.));
#384=DIRECTION('',(1.,0.,0.));
#385=DIRECTION('',(0.,0.,-1.));
#386=AXIS2_PLACEMENT_3D('',#383,#384,#385);
#387=CYLINDRICAL_SURFACE('',#386,10.);
#388=CARTESIAN_POINT('',(4.3,0.,10.));
#389=DIRECTION('',(-1.,-0.,0.));
#390=VECTOR('',#389,4.3);
#391=LINE('',#388,#390);
#392=EDGE_CURVE('',#347,#95,#391,.T.);
#393=ORIENTED_EDGE('',*,*,#392,.T.);
#394=ORIENTED_EDGE('',*,*,#103,.T.);
#395=CARTESIAN_POINT('',(4.3,0.,-10.));
#396=DIRECTION('',(-1.,-0.,0.));
#397=VECTOR('',#396,4.3);
#398=LINE('',#395,#397);
#399=EDGE_CURVE('',#357,#97,#398,.T.);
#400=ORIENTED_EDGE('',*,*,#399,.F.);
#401=ORIENTED_EDGE('',*,*,#363,.F.);
#402=EDGE_LOOP('',(#393,#394,#400,#401));
#403=FACE_BOUND('',#402,.T.);
#404=ADVANCED_FACE('',(#403),#387,.T.);
#405=CARTESIAN_POINT('',(4.45,0.,0.));
#406=DIRECTION('',(1.,0.,0.));
#407=DIRECTION('',(0.,0.,-1.));
#408=AXIS2_PLACEMENT_3D('',#405,#406,#407);
#409=TOROIDAL_SURFACE('',#408,7.9,0.89);
#410=CARTESIAN_POINT('',(4.45,0.,8.79));
#411=VERTEX_POINT('',#410);
#412=CARTESIAN_POINT('',(4.45,0.,7.9));
#413=DIRECTION('',(-0.,-1.,0.));
#414=DIRECTION('',(0.,0.,1.));
#415=AXIS2_PLACEMENT_3D('',#412,#413,#414);
#416=CIRCLE('',#415,0.89);
#417=EDGE_CURVE('',#411,#349,#416,.T.);
#418=ORIENTED_EDGE('',*,*,#417,.T.);
#419=ORIENTED_EDGE('',*,*,#378,.T.);
#420=CARTESIAN_POINT('',(4.45,0.,-8.79));
#421=VERTEX_POINT('',#420);
#422=CARTESIAN_POINT('',(4.45,0.,-7.9));
#423=DIRECTION('',(0.,1.,0.));
#424=DIRECTION('',(0.,0.,-1.));
#425=AXIS2_PLACEMENT_3D('',#422,#423,#424);
#426=CIRCLE('',#425,0.89);
#427=EDGE_CURVE('',#421,#366,#426,.T.);
#428=ORIENTED_EDGE('',*,*,#427,.F.);
#429=CARTESIAN_POINT('',(4.45,0.,0.));
#430=DIRECTION('',(-1.,0.,-0.));
#431=DIRECTION('',(0.,0.,-1.));
#432=AXIS2_PLACEMENT_3D('',#429,#430,#431);
#433=CIRCLE('',#432,8.79);
#434=EDGE_CURVE('',#421,#411,#433,.T.);
#435=ORIENTED_EDGE('',*,*,#434,.T.);
#436=EDGE_LOOP('',(#418,#419,#428,#435));
#437=FACE_BOUND('',#436,.T.);
#438=ADVANCED_FACE('',(#437),#409,.T.);
#439=DRAUGHTING_PRE_DEFINED_COLOUR('black');
#440=FILL_AREA_STYLE_COLOUR('',#439);
#441=FILL_AREA_STYLE('',(#440));
#442=SURFACE_STYLE_FILL_AREA(#441);
#443=SURFACE_SIDE_STYLE('',(#442));
#444=SURFACE_STYLE_USAGE(.BOTH.,#443);
#445=PRESENTATION_STYLE_ASSIGNMENT((#444));
#446=OVER_RIDING_STYLED_ITEM('',(#445),#438,#26);
#447=CARTESIAN_POINT('',(4.45,0.,0.));
#448=DIRECTION('',(1.,0.,0.));
#449=DIRECTION('',(0.,0.,-1.));
#450=AXIS2_PLACEMENT_3D('',#447,#448,#449);
#451=TOROIDAL_SURFACE('',#450,7.9,0.89);
#452=CARTESIAN_POINT('',(4.45,0.,-7.01));
#453=VERTEX_POINT('',#452);
#454=CARTESIAN_POINT('',(4.45,0.,7.01));
#455=VERTEX_POINT('',#454);
#456=CARTESIAN_POINT('',(4.45,0.,0.));
#457=DIRECTION('',(-1.,-0.,-0.));
#458=DIRECTION('',(0.,0.,-1.));
#459=AXIS2_PLACEMENT_3D('',#456,#457,#458);
#460=CIRCLE('',#459,7.01);
#461=EDGE_CURVE('',#453,#455,#460,.T.);
#462=ORIENTED_EDGE('',*,*,#461,.T.);
#463=CARTESIAN_POINT('',(4.45,0.,7.9));
#464=DIRECTION('',(-0.,-1.,0.));
#465=DIRECTION('',(0.,0.,1.));
#466=AXIS2_PLACEMENT_3D('',#463,#464,#465);
#467=CIRCLE('',#466,0.89);
#468=EDGE_CURVE('',#455,#411,#467,.T.);
#469=ORIENTED_EDGE('',*,*,#468,.T.);
#470=ORIENTED_EDGE('',*,*,#434,.F.);
#471=CARTESIAN_POINT('',(4.45,0.,-7.9));
#472=DIRECTION('',(0.,1.,0.));
#473=DIRECTION('',(0.,0.,-1.));
#474=AXIS2_PLACEMENT_3D('',#471,#472,#473);
#475=CIRCLE('',#474,0.89);
#476=EDGE_CURVE('',#453,#421,#475,.T.);
#477=ORIENTED_EDGE('',*,*,#476,.F.);
#478=EDGE_LOOP('',(#462,#469,#470,#477));
#479=FACE_BOUND('',#478,.T.);
#480=ADVANCED_FACE('',(#479),#451,.T.);
#481=OVER_RIDING_STYLED_ITEM('',(#445),#480,#26);
#482=CARTESIAN_POINT('',(3.3,0.,0.));
#483=DIRECTION('',(1.,0.,0.));
#484=DIRECTION('',(0.,0.,-1.));
#485=AXIS2_PLACEMENT_3D('',#482,#483,#484);
#486=CONICAL_SURFACE('',#485,7.,71.565051177);
#487=ORIENTED_EDGE('',*,*,#40,.T.);
#488=CARTESIAN_POINT('',(3.3,0.,0.));
#489=DIRECTION('',(1.,0.,0.));
#490=DIRECTION('',(0.,0.,-1.));
#491=AXIS2_PLACEMENT_3D('',#488,#489,#490);
#492=CIRCLE('',#491,7.);
#493=EDGE_CURVE('',#52,#35,#492,.T.);
#494=ORIENTED_EDGE('',*,*,#493,.F.);
#495=ORIENTED_EDGE('',*,*,#57,.F.);
#496=CARTESIAN_POINT('',(3.565899202,0.,0.));
#497=DIRECTION('',(-1.,0.,-0.));
#498=DIRECTION('',(0.,0.,-1.));
#499=AXIS2_PLACEMENT_3D('',#496,#497,#498);
#500=CIRCLE('',#499,7.797697607);
#501=EDGE_CURVE('',#33,#43,#500,.T.);
#502=ORIENTED_EDGE('',*,*,#501,.F.);
#503=EDGE_LOOP('',(#487,#494,#495,#502));
#504=FACE_BOUND('',#503,.T.);
#505=ADVANCED_FACE('',(#504),#486,.F.);
#506=CARTESIAN_POINT('',(0.,0.,0.));
#507=DIRECTION('',(-1.,0.,0.));
#508=DIRECTION('',(0.,0.,1.));
#509=AXIS2_PLACEMENT_3D('',#506,#507,#508);
#510=CONICAL_SURFACE('',#509,8.25,43.876697286);
#511=ORIENTED_EDGE('',*,*,#126,.T.);
#512=ORIENTED_EDGE('',*,*,#178,.T.);
#513=ORIENTED_EDGE('',*,*,#135,.F.);
#514=ORIENTED_EDGE('',*,*,#83,.F.);
#515=EDGE_LOOP('',(#511,#512,#513,#514));
#516=FACE_BOUND('',#515,.T.);
#517=ADVANCED_FACE('',(#516),#510,.F.);
#518=CARTESIAN_POINT('',(5.4,0.,0.));
#519=DIRECTION('',(1.,0.,0.));
#520=DIRECTION('',(0.,0.,-1.));
#521=AXIS2_PLACEMENT_3D('',#518,#519,#520);
#522=CYLINDRICAL_SURFACE('',#521,3.55);
#523=ORIENTED_EDGE('',*,*,#194,.T.);
#524=ORIENTED_EDGE('',*,*,#161,.F.);
#525=ORIENTED_EDGE('',*,*,#209,.F.);
#526=ORIENTED_EDGE('',*,*,#246,.T.);
#527=EDGE_LOOP('',(#523,#524,#525,#526));
#528=FACE_BOUND('',#527,.T.);
#529=ADVANCED_FACE('',(#528),#522,.F.);
#530=CARTESIAN_POINT('',(4.4,0.,0.));
#531=DIRECTION('',(1.,0.,0.));
#532=DIRECTION('',(0.,0.,-1.));
#533=AXIS2_PLACEMENT_3D('',#530,#531,#532);
#534=CONICAL_SURFACE('',#533,4.75,45.);
#535=ORIENTED_EDGE('',*,*,#262,.T.);
#536=ORIENTED_EDGE('',*,*,#229,.F.);
#537=ORIENTED_EDGE('',*,*,#277,.F.);
#538=ORIENTED_EDGE('',*,*,#314,.T.);
#539=EDGE_LOOP('',(#535,#536,#537,#538));
#540=FACE_BOUND('',#539,.T.);
#541=ADVANCED_FACE('',(#540),#534,.F.);
#542=CARTESIAN_POINT('',(5.4,0.,0.));
#543=DIRECTION('',(1.,0.,0.));
#544=DIRECTION('',(0.,0.,-1.));
#545=AXIS2_PLACEMENT_3D('',#542,#543,#544);
#546=CYLINDRICAL_SURFACE('',#545,7.);
#547=ORIENTED_EDGE('',*,*,#328,.F.);
#548=ORIENTED_EDGE('',*,*,#297,.F.);
#549=ORIENTED_EDGE('',*,*,#335,.T.);
#550=ORIENTED_EDGE('',*,*,#493,.T.);
#551=EDGE_LOOP('',(#547,#548,#549,#550));
#552=FACE_BOUND('',#551,.T.);
#553=ADVANCED_FACE('',(#552),#546,.T.);
#554=CARTESIAN_POINT('',(3.3,0.,0.));
#555=DIRECTION('',(1.,0.,0.));
#556=DIRECTION('',(0.,0.,-1.));
#557=AXIS2_PLACEMENT_3D('',#554,#555,#556);
#558=CONICAL_SURFACE('',#557,7.,71.565051177);
#559=ORIENTED_EDGE('',*,*,#354,.T.);
#560=CARTESIAN_POINT('',(3.804100798,0.,0.));
#561=DIRECTION('',(1.,-0.,0.));
#562=DIRECTION('',(0.,0.,1.));
#563=AXIS2_PLACEMENT_3D('',#560,#561,#562);
#564=CIRCLE('',#563,8.512302393);
#565=EDGE_CURVE('',#366,#349,#564,.T.);
#566=ORIENTED_EDGE('',*,*,#565,.F.);
#567=ORIENTED_EDGE('',*,*,#371,.F.);
#568=CARTESIAN_POINT('',(4.3,0.,0.));
#569=DIRECTION('',(1.,0.,0.));
#570=DIRECTION('',(0.,0.,-1.));
#571=AXIS2_PLACEMENT_3D('',#568,#569,#570);
#572=CIRCLE('',#571,10.);
#573=EDGE_CURVE('',#357,#347,#572,.T.);
#574=ORIENTED_EDGE('',*,*,#573,.T.);
#575=EDGE_LOOP('',(#559,#566,#567,#574));
#576=FACE_BOUND('',#575,.T.);
#577=ADVANCED_FACE('',(#576),#558,.F.);
#578=CARTESIAN_POINT('',(5.4,0.,0.));
#579=DIRECTION('',(1.,0.,0.));
#580=DIRECTION('',(0.,0.,-1.));
#581=AXIS2_PLACEMENT_3D('',#578,#579,#580);
#582=CYLINDRICAL_SURFACE('',#581,10.);
#583=ORIENTED_EDGE('',*,*,#392,.F.);
#584=ORIENTED_EDGE('',*,*,#573,.F.);
#585=ORIENTED_EDGE('',*,*,#399,.T.);
#586=ORIENTED_EDGE('',*,*,#110,.T.);
#587=EDGE_LOOP('',(#583,#584,#585,#586));
#588=FACE_BOUND('',#587,.T.);
#589=ADVANCED_FACE('',(#588),#582,.T.);
#590=CARTESIAN_POINT('',(4.45,0.,0.));
#591=DIRECTION('',(1.,0.,0.));
#592=DIRECTION('',(0.,0.,-1.));
#593=AXIS2_PLACEMENT_3D('',#590,#591,#592);
#594=TOROIDAL_SURFACE('',#593,7.9,0.89);
#595=ORIENTED_EDGE('',*,*,#417,.F.);
#596=CARTESIAN_POINT('',(4.45,0.,0.));
#597=DIRECTION('',(-1.,0.,-0.));
#598=DIRECTION('',(0.,0.,-1.));
#599=AXIS2_PLACEMENT_3D('',#596,#597,#598);
#600=CIRCLE('',#599,8.79);
#601=EDGE_CURVE('',#411,#421,#600,.T.);
#602=ORIENTED_EDGE('',*,*,#601,.T.);
#603=ORIENTED_EDGE('',*,*,#427,.T.);
#604=ORIENTED_EDGE('',*,*,#565,.T.);
#605=EDGE_LOOP('',(#595,#602,#603,#604));
#606=FACE_BOUND('',#605,.T.);
#607=ADVANCED_FACE('',(#606),#594,.T.);
#608=OVER_RIDING_STYLED_ITEM('',(#445),#607,#26);
#609=CARTESIAN_POINT('',(4.45,0.,0.));
#610=DIRECTION('',(1.,0.,0.));
#611=DIRECTION('',(0.,0.,-1.));
#612=AXIS2_PLACEMENT_3D('',#609,#610,#611);
#613=TOROIDAL_SURFACE('',#612,7.9,0.89);
#614=ORIENTED_EDGE('',*,*,#461,.F.);
#615=CARTESIAN_POINT('',(4.45,0.,-7.9));
#616=DIRECTION('',(0.,1.,0.));
#617=DIRECTION('',(0.,0.,-1.));
#618=AXIS2_PLACEMENT_3D('',#615,#616,#617);
#619=CIRCLE('',#618,0.89);
#620=EDGE_CURVE('',#43,#453,#619,.T.);
#621=ORIENTED_EDGE('',*,*,#620,.F.);
#622=ORIENTED_EDGE('',*,*,#49,.T.);
#623=CARTESIAN_POINT('',(4.45,0.,7.9));
#624=DIRECTION('',(-0.,-1.,0.));
#625=DIRECTION('',(0.,0.,1.));
#626=AXIS2_PLACEMENT_3D('',#623,#624,#625);
#627=CIRCLE('',#626,0.89);
#628=EDGE_CURVE('',#33,#455,#627,.T.);
#629=ORIENTED_EDGE('',*,*,#628,.T.);
#630=EDGE_LOOP('',(#614,#621,#622,#629));
#631=FACE_BOUND('',#630,.T.);
#632=ADVANCED_FACE('',(#631),#613,.T.);
#633=OVER_RIDING_STYLED_ITEM('',(#445),#632,#26);
#634=CARTESIAN_POINT('',(4.45,0.,0.));
#635=DIRECTION('',(1.,0.,0.));
#636=DIRECTION('',(0.,0.,-1.));
#637=AXIS2_PLACEMENT_3D('',#634,#635,#636);
#638=TOROIDAL_SURFACE('',#637,7.9,0.89);
#639=CARTESIAN_POINT('',(4.45,0.,0.));
#640=DIRECTION('',(-1.,-0.,-0.));
#641=DIRECTION('',(0.,0.,-1.));
#642=AXIS2_PLACEMENT_3D('',#639,#640,#641);
#643=CIRCLE('',#642,7.01);
#644=EDGE_CURVE('',#455,#453,#643,.T.);
#645=ORIENTED_EDGE('',*,*,#644,.T.);
#646=ORIENTED_EDGE('',*,*,#476,.T.);
#647=ORIENTED_EDGE('',*,*,#601,.F.);
#648=ORIENTED_EDGE('',*,*,#468,.F.);
#649=EDGE_LOOP('',(#645,#646,#647,#648));
#650=FACE_BOUND('',#649,.T.);
#651=ADVANCED_FACE('',(#650),#638,.T.);
#652=OVER_RIDING_STYLED_ITEM('',(#445),#651,#26);
#653=CARTESIAN_POINT('',(4.45,0.,0.));
#654=DIRECTION('',(1.,0.,0.));
#655=DIRECTION('',(0.,0.,-1.));
#656=AXIS2_PLACEMENT_3D('',#653,#654,#655);
#657=TOROIDAL_SURFACE('',#656,7.9,0.89);
#658=ORIENTED_EDGE('',*,*,#644,.F.);
#659=ORIENTED_EDGE('',*,*,#628,.F.);
#660=ORIENTED_EDGE('',*,*,#501,.T.);
#661=ORIENTED_EDGE('',*,*,#620,.T.);
#662=EDGE_LOOP('',(#658,#659,#660,#661));
#663=FACE_BOUND('',#662,.T.);
#664=ADVANCED_FACE('',(#663),#657,.T.);
#665=OVER_RIDING_STYLED_ITEM('',(#445),#664,#26);
#666=CLOSED_SHELL('',(#68,#114,#146,#182,#214,#250,#282,#318,#340,#382,#404,#438,#480,#505,#517,#529,#541,#553,#577,#589,#607,#632,#651,#664));
#667=MANIFOLD_SOLID_BREP('0222100100',#666);
#668=COLOUR_RGB('',0.689999998,0.689999998,0.689999998);
#669=FILL_AREA_STYLE_COLOUR('',#668);
#670=FILL_AREA_STYLE('',(#669));
#671=SURFACE_STYLE_FILL_AREA(#670);
#672=SURFACE_SIDE_STYLE('',(#671));
#673=SURFACE_STYLE_USAGE(.BOTH.,#672);
#674=PRESENTATION_STYLE_ASSIGNMENT((#673));
#26=STYLED_ITEM('',(#674),#667);
#675=INTEGER_REPRESENTATION_ITEM('ATTRIB_BOUNDING_BOX_ALGORITHM',3);
#676=ID_ATTRIBUTE('SA #677',#677);
#677=SHAPE_ASPECT('properties','',#23,.F.);
#678=GEOMETRIC_ITEM_SPECIFIC_USAGE('','properties',#677,#17,#667);
#679=PROPERTY_DEFINITION('ATTRIB_BOUNDING_BOX_ALGORITHM','',#677);
#680=REPRESENTATION('',(#675),#10);
#681=PROPERTY_DEFINITION_REPRESENTATION(#679,#680);
#682=GENERAL_PROPERTY('','ATTRIB_BOUNDING_BOX_ALGORITHM','');
#683=GENERAL_PROPERTY_ASSOCIATION('','',#682,#679);
#16=SHAPE_REPRESENTATION('6112 0222100100 Coil Protection Kit, Coil 22, 8mm, IP65',(#15),#10);
#17=ADVANCED_BREP_SHAPE_REPRESENTATION('6112 0222100100 Coil Protection Kit, Coil 22, 8mm, IP65',(#667),#10);
#691=SHAPE_REPRESENTATION_RELATIONSHIP('','',#16,#17);
#692=CARTESIAN_POINT('',(0.,0.,0.));
#693=DIRECTION('',(0.,0.,1.));
#694=DIRECTION('',(1.,0.,0.));
#695=AXIS2_PLACEMENT_3D('',#692,#693,#694);
#697=MAPPED_ITEM('',#696,#695);
#696=REPRESENTATION_MAP(#695,#16);
#698=APPLICATION_CONTEXT('Managed model based 3d engineering');
#699=APPLICATION_PROTOCOL_DEFINITION('international standard','ap242_managed_model_based_3d_engineering',2013,#698);
#700=PRODUCT_CONTEXT('',#698,'mechanical');
#701=PRODUCT_DEFINITION_CONTEXT('part definition',#698,'design');
#24=PRODUCT('6112 0222100100 Coil Protection Kit, Coil 22, 8mm, IP65','6112 0222100100 Coil Protection Kit, Coil 22, 8mm, IP65','',(#700));
#702=PRODUCT_RELATED_PRODUCT_CATEGORY('part','',(#24));
#703=PRODUCT_DEFINITION_FORMATION_WITH_SPECIFIED_SOURCE('','',#24,.NOT_KNOWN.);
#25=PRODUCT_DEFINITION('design','',#703,#701);
#23=PRODUCT_DEFINITION_SHAPE('','',#25);
#704=SHAPE_DEFINITION_REPRESENTATION(#23,#16);
#11=DRAUGHTING_MODEL('',(#697),#10);
#1=MECHANICAL_DESIGN_GEOMETRIC_PRESENTATION_REPRESENTATION('',(#446,#481,#608,#633,#652,#665,#26),#10);
ENDSEC;
END-ISO-10303-21;
