ISO-10303-21;
HEADER;

/* File generated by Alibre Version V23 */

FILE_DESCRIPTION(('HOOPS Exchange Step'),'2;1');

FILE_NAME('C:\\Users\\Gebruiker\\AppData\\Local\\Temp\\Alibre Design\\export-0F23B05C-8988-4CBC-8456-3049E8DC5606.stp',
'2022-09-28T14:51:20+02:00',
('Engineering'),
('Alibre'),
'HOOPS Exchange 2021.0',
'Alibre',
'Unknown authorisation');

FILE_SCHEMA( ('AP242_MANAGED_MODEL_BASED_3D_ENGINEERING_MIM_LF {1 0 10303 442 1 1 4 }') );

ENDSEC;

DATA;
#3=(NAMED_UNIT(*)PLANE_ANGLE_UNIT()SI_UNIT($,.RADIAN.));
#4=PLANE_ANGLE_MEASURE_WITH_UNIT(PLANE_ANGLE_MEASURE(0.0174532925),#3);
#5=(CONVERSION_BASED_UNIT('DEGREE',#4)NAMED_UNIT(#6)PLANE_ANGLE_UNIT());
#6=DIMENSIONAL_EXPONENTS(0.,0.,0.,0.,0.,0.,0.);
#7=(NAMED_UNIT(*)SI_UNIT($,.STERADIAN.)SOLID_ANGLE_UNIT());
#8=(LENGTH_UNIT()NAMED_UNIT(*)SI_UNIT(.MILLI.,.METRE.));
#9=UNCERTAINTY_MEASURE_WITH_UNIT(LENGTH_MEASURE(1.000000E-03),#8,'DISTANCE_ACCURACY_VALUE','Maximum Tolerance applied to model');
#10=(GEOMETRIC_REPRESENTATION_CONTEXT(3)GLOBAL_UNCERTAINTY_ASSIGNED_CONTEXT((#9))GLOBAL_UNIT_ASSIGNED_CONTEXT((#8,#5,#7))REPRESENTATION_CONTEXT('','6062 Coding element - HC-CST-MOD - 1636127'));
#12=CARTESIAN_POINT('',(0.,0.,0.));
#13=DIRECTION('',(0.,0.,1.));
#14=DIRECTION('',(1.,0.,0.));
#15=AXIS2_PLACEMENT_3D('',#12,#13,#14);
#26=(NAMED_UNIT(*)PLANE_ANGLE_UNIT()SI_UNIT($,.RADIAN.));
#27=PLANE_ANGLE_MEASURE_WITH_UNIT(PLANE_ANGLE_MEASURE(0.0174532925),#26);
#28=(CONVERSION_BASED_UNIT('DEGREE',#27)NAMED_UNIT(#29)PLANE_ANGLE_UNIT());
#29=DIMENSIONAL_EXPONENTS(0.,0.,0.,0.,0.,0.,0.);
#30=(NAMED_UNIT(*)SI_UNIT($,.STERADIAN.)SOLID_ANGLE_UNIT());
#31=(LENGTH_UNIT()NAMED_UNIT(*)SI_UNIT(.MILLI.,.METRE.));
#32=UNCERTAINTY_MEASURE_WITH_UNIT(LENGTH_MEASURE(1.000000E-06),#31,'DISTANCE_ACCURACY_VALUE','Maximum Tolerance applied to model');
#33=(GEOMETRIC_REPRESENTATION_CONTEXT(3)GLOBAL_UNCERTAINTY_ASSIGNED_CONTEXT((#32))GLOBAL_UNIT_ASSIGNED_CONTEXT((#31,#28,#30))REPRESENTATION_CONTEXT('','6062-1 Coding element - HC-CST-MOD - 1636127'));
#35=CARTESIAN_POINT('',(0.,0.,0.));
#36=DIRECTION('',(0.,0.,1.));
#37=DIRECTION('',(1.,0.,0.));
#38=AXIS2_PLACEMENT_3D('',#35,#36,#37);
#49=CARTESIAN_POINT('',(2.15,2.15,10.1));
#50=DIRECTION('',(-0.,1.,0.));
#51=DIRECTION('',(-1.,-0.,-0.));
#52=AXIS2_PLACEMENT_3D('',#49,#50,#51);
#53=ITEM_DEFINED_TRANSFORMATION('','',#52,#38);
#54=(REPRESENTATION_RELATIONSHIP('','',#39,#16)REPRESENTATION_RELATIONSHIP_WITH_TRANSFORMATION(#53)SHAPE_REPRESENTATION_RELATIONSHIP());
#55=NEXT_ASSEMBLY_USAGE_OCCURRENCE('6062-1 Coding element - HC-CST-MOD - 1636127_1','6062-1 Coding element - HC-CST-MOD - 1636127','6062-1 Coding element - HC-CST-MOD - 1636127',#25,#48,$);
#56=PRODUCT_DEFINITION_SHAPE('','',#55);
#57=CONTEXT_DEPENDENT_SHAPE_REPRESENTATION(#54,#56);
#59=CARTESIAN_POINT('',(-0.,11.1,-0.));
#60=DIRECTION('',(0.,-1.,0.));
#61=DIRECTION('',(-1.,0.,0.));
#62=AXIS2_PLACEMENT_3D('',#59,#60,#61);
#63=PLANE('',#62);
#64=CARTESIAN_POINT('',(-2.078460969,11.1,-0.55));
#65=VERTEX_POINT('',#64);
#66=CARTESIAN_POINT('',(2.078460969,11.1,-0.55));
#67=VERTEX_POINT('',#66);
#68=CARTESIAN_POINT('',(-12346.029656846,11.1,-0.55));
#69=DIRECTION('',(1.,0.,0.));
#70=VECTOR('',#69,24690.);
#71=LINE('',#68,#70);
#72=EDGE_CURVE('',#65,#67,#71,.T.);
#73=ORIENTED_EDGE('',*,*,#72,.F.);
#74=CARTESIAN_POINT('',(-2.15,11.1,0.));
#75=VERTEX_POINT('',#74);
#76=CARTESIAN_POINT('',(-0.,11.1,0.));
#77=DIRECTION('',(-0.,1.,-0.));
#78=DIRECTION('',(-1.,-0.,-0.));
#79=AXIS2_PLACEMENT_3D('',#76,#77,#78);
#80=CIRCLE('',#79,2.15);
#81=EDGE_CURVE('',#65,#75,#80,.T.);
#82=ORIENTED_EDGE('',*,*,#81,.T.);
#83=CARTESIAN_POINT('',(-2.078460969,11.1,0.55));
#84=VERTEX_POINT('',#83);
#85=CARTESIAN_POINT('',(-0.,11.1,0.));
#86=DIRECTION('',(-0.,1.,-0.));
#87=DIRECTION('',(-1.,-0.,-0.));
#88=AXIS2_PLACEMENT_3D('',#85,#86,#87);
#89=CIRCLE('',#88,2.15);
#90=EDGE_CURVE('',#75,#84,#89,.T.);
#91=ORIENTED_EDGE('',*,*,#90,.T.);
#92=CARTESIAN_POINT('',(2.078460969,11.1,0.55));
#93=VERTEX_POINT('',#92);
#94=CARTESIAN_POINT('',(-12343.970343154,11.1,0.55));
#95=DIRECTION('',(1.,-0.,0.));
#96=VECTOR('',#95,24690.);
#97=LINE('',#94,#96);
#98=EDGE_CURVE('',#84,#93,#97,.T.);
#99=ORIENTED_EDGE('',*,*,#98,.T.);
#100=CARTESIAN_POINT('',(2.15,11.1,0.));
#101=VERTEX_POINT('',#100);
#102=CARTESIAN_POINT('',(-0.,11.1,0.));
#103=DIRECTION('',(-0.,1.,-0.));
#104=DIRECTION('',(-1.,-0.,-0.));
#105=AXIS2_PLACEMENT_3D('',#102,#103,#104);
#106=CIRCLE('',#105,2.15);
#107=EDGE_CURVE('',#93,#101,#106,.T.);
#108=ORIENTED_EDGE('',*,*,#107,.T.);
#109=CARTESIAN_POINT('',(-0.,11.1,0.));
#110=DIRECTION('',(-0.,1.,-0.));
#111=DIRECTION('',(-1.,-0.,-0.));
#112=AXIS2_PLACEMENT_3D('',#109,#110,#111);
#113=CIRCLE('',#112,2.15);
#114=EDGE_CURVE('',#101,#67,#113,.T.);
#115=ORIENTED_EDGE('',*,*,#114,.T.);
#116=EDGE_LOOP('',(#73,#82,#91,#99,#108,#115));
#117=FACE_BOUND('',#116,.T.);
#118=ADVANCED_FACE('',(#117),#63,.F.);
#119=CARTESIAN_POINT('',(-2.059313693,11.4,-0.55));
#120=DIRECTION('',(0.,0.,-1.));
#121=DIRECTION('',(1.,0.,0.));
#122=AXIS2_PLACEMENT_3D('',#119,#120,#121);
#123=PLANE('',#122);
#124=CARTESIAN_POINT('',(-2.078460969,11.367949192,-0.55));
#125=VERTEX_POINT('',#124);
#126=CARTESIAN_POINT('',(-2.078460967,-12346.1,-0.55));
#127=DIRECTION('',(-0.,1.,0.));
#128=VECTOR('',#127,24690.);
#129=LINE('',#126,#128);
#130=EDGE_CURVE('',#65,#125,#129,.T.);
#131=ORIENTED_EDGE('',*,*,#130,.F.);
#132=ORIENTED_EDGE('',*,*,#72,.T.);
#133=CARTESIAN_POINT('',(2.078460969,11.367949192,-0.55));
#134=VERTEX_POINT('',#133);
#135=CARTESIAN_POINT('',(2.078460971,-12346.1,-0.55));
#136=DIRECTION('',(-0.,1.,0.));
#137=VECTOR('',#136,24690.);
#138=LINE('',#135,#137);
#139=EDGE_CURVE('',#67,#134,#138,.T.);
#140=ORIENTED_EDGE('',*,*,#139,.T.);
#141=CARTESIAN_POINT('',(2.059313693,11.4,-0.55));
#142=VERTEX_POINT('',#141);
#143=CARTESIAN_POINT('',(2.078460969,11.367949192,-0.55));
#144=CARTESIAN_POINT('',(2.068845954,11.384048753,-0.55));
#145=CARTESIAN_POINT('',(2.059313693,11.4,-0.55));
#146=(BOUNDED_CURVE()
B_SPLINE_CURVE(2,(#143,#144,#145),.UNSPECIFIED.,.F.,.F.)
B_SPLINE_CURVE_WITH_KNOTS((3,3),(0.041541558,0.068012857),.UNSPECIFIED.)
CURVE()
GEOMETRIC_REPRESENTATION_ITEM()
RATIONAL_B_SPLINE_CURVE((1.002443111,1.003206217,1.003949824))
REPRESENTATION_ITEM(''));
#147=EDGE_CURVE('',#134,#142,#146,.T.);
#148=ORIENTED_EDGE('',*,*,#147,.T.);
#149=CARTESIAN_POINT('',(1.009950494,13.1,-0.55));
#150=VERTEX_POINT('',#149);
#151=CARTESIAN_POINT('',(1.009950494,13.1,-0.55));
#152=CARTESIAN_POINT('',(1.3776998,12.540609952,-0.55));
#153=CARTESIAN_POINT('',(2.059313693,11.4,-0.55));
#154=(BOUNDED_CURVE()
B_SPLINE_CURVE(2,(#151,#152,#153),.UNSPECIFIED.,.F.,.F.)
B_SPLINE_CURVE_WITH_KNOTS((3,3),(0.068012857,2.068292514),.UNSPECIFIED.)
CURVE()
GEOMETRIC_REPRESENTATION_ITEM()
RATIONAL_B_SPLINE_CURVE((1.004996709,1.060139861,1.003949824))
REPRESENTATION_ITEM(''));
#155=EDGE_CURVE('',#150,#142,#154,.T.);
#156=ORIENTED_EDGE('',*,*,#155,.F.);
#157=CARTESIAN_POINT('',(-1.009950494,13.1,-0.55));
#158=VERTEX_POINT('',#157);
#159=CARTESIAN_POINT('',(-12346.029656846,13.099999996,-0.55));
#160=DIRECTION('',(1.,0.,0.));
#161=VECTOR('',#160,24690.);
#162=LINE('',#159,#161);
#163=EDGE_CURVE('',#158,#150,#162,.T.);
#164=ORIENTED_EDGE('',*,*,#163,.F.);
#165=CARTESIAN_POINT('',(-2.059313693,11.4,-0.55));
#166=VERTEX_POINT('',#165);
#167=CARTESIAN_POINT('',(-2.059313693,11.4,-0.55));
#168=CARTESIAN_POINT('',(-1.3776998,12.540609952,-0.55));
#169=CARTESIAN_POINT('',(-1.009950494,13.1,-0.55));
#170=(BOUNDED_CURVE()
B_SPLINE_CURVE(2,(#167,#168,#169),.UNSPECIFIED.,.F.,.F.)
B_SPLINE_CURVE_WITH_KNOTS((3,3),(0.086821829,2.087101486),.UNSPECIFIED.)
CURVE()
GEOMETRIC_REPRESENTATION_ITEM()
RATIONAL_B_SPLINE_CURVE((1.003949824,1.060139861,1.004996709))
REPRESENTATION_ITEM(''));
#171=EDGE_CURVE('',#166,#158,#170,.T.);
#172=ORIENTED_EDGE('',*,*,#171,.F.);
#173=CARTESIAN_POINT('',(-2.059313693,11.4,-0.55));
#174=CARTESIAN_POINT('',(-2.068845954,11.384048753,-0.55));
#175=CARTESIAN_POINT('',(-2.078460969,11.367949192,-0.55));
#176=(BOUNDED_CURVE()
B_SPLINE_CURVE(2,(#173,#174,#175),.UNSPECIFIED.,.F.,.F.)
B_SPLINE_CURVE_WITH_KNOTS((3,3),(2.087101486,2.113572785),.UNSPECIFIED.)
CURVE()
GEOMETRIC_REPRESENTATION_ITEM()
RATIONAL_B_SPLINE_CURVE((1.003949824,1.003206217,1.002443111))
REPRESENTATION_ITEM(''));
#177=EDGE_CURVE('',#166,#125,#176,.T.);
#178=ORIENTED_EDGE('',*,*,#177,.T.);
#179=EDGE_LOOP('',(#131,#132,#140,#148,#156,#164,#172,#178));
#180=FACE_BOUND('',#179,.T.);
#181=ADVANCED_FACE('',(#180),#123,.F.);
#182=CARTESIAN_POINT('',(-0.,13.1,0.));
#183=DIRECTION('',(-0.,1.,0.));
#184=DIRECTION('',(-1.,-0.,-0.));
#185=AXIS2_PLACEMENT_3D('',#182,#183,#184);
#186=PLANE('',#185);
#187=ORIENTED_EDGE('',*,*,#163,.T.);
#188=CARTESIAN_POINT('',(-0.,13.1,0.));
#189=DIRECTION('',(-0.,1.,0.));
#190=DIRECTION('',(1.,0.,0.));
#191=AXIS2_PLACEMENT_3D('',#188,#189,#190);
#192=CIRCLE('',#191,1.15);
#193=EDGE_CURVE('',#150,#158,#192,.T.);
#194=ORIENTED_EDGE('',*,*,#193,.T.);
#195=EDGE_LOOP('',(#187,#194));
#196=FACE_BOUND('',#195,.T.);
#197=ADVANCED_FACE('',(#196),#186,.T.);
#198=CARTESIAN_POINT('',(-0.,11.367949192,0.));
#199=DIRECTION('',(0.,-1.,-0.));
#200=DIRECTION('',(1.,0.,0.));
#201=AXIS2_PLACEMENT_3D('',#198,#199,#200);
#202=CONICAL_SURFACE('',#201,2.15,30.);
#203=ORIENTED_EDGE('',*,*,#177,.F.);
#204=ORIENTED_EDGE('',*,*,#171,.T.);
#205=ORIENTED_EDGE('',*,*,#193,.F.);
#206=ORIENTED_EDGE('',*,*,#155,.T.);
#207=ORIENTED_EDGE('',*,*,#147,.F.);
#208=CARTESIAN_POINT('',(-0.,11.367949192,0.));
#209=DIRECTION('',(-0.,1.,0.));
#210=DIRECTION('',(-1.,-0.,-0.));
#211=AXIS2_PLACEMENT_3D('',#208,#209,#210);
#212=CIRCLE('',#211,2.15);
#213=EDGE_CURVE('',#134,#125,#212,.T.);
#214=ORIENTED_EDGE('',*,*,#213,.T.);
#215=EDGE_LOOP('',(#203,#204,#205,#206,#207,#214));
#216=FACE_BOUND('',#215,.T.);
#217=ADVANCED_FACE('',(#216),#202,.T.);
#218=CARTESIAN_POINT('',(-0.,-1.1,-0.));
#219=DIRECTION('',(-0.,1.,0.));
#220=DIRECTION('',(-1.,-0.,-0.));
#221=AXIS2_PLACEMENT_3D('',#218,#219,#220);
#222=CYLINDRICAL_SURFACE('',#221,2.15);
#223=CARTESIAN_POINT('',(2.15,-1.1,0.));
#224=VERTEX_POINT('',#223);
#225=CARTESIAN_POINT('',(-2.15,-1.1,-0.));
#226=VERTEX_POINT('',#225);
#227=CARTESIAN_POINT('',(-0.,-1.1,-0.));
#228=DIRECTION('',(-0.,1.,0.));
#229=DIRECTION('',(-1.,-0.,-0.));
#230=AXIS2_PLACEMENT_3D('',#227,#228,#229);
#231=CIRCLE('',#230,2.15);
#232=EDGE_CURVE('',#224,#226,#231,.T.);
#233=ORIENTED_EDGE('',*,*,#232,.T.);
#234=CARTESIAN_POINT('',(-2.15,-1.1,-0.));
#235=DIRECTION('',(-0.,1.,0.));
#236=VECTOR('',#235,12.2);
#237=LINE('',#234,#236);
#238=EDGE_CURVE('',#226,#75,#237,.T.);
#239=ORIENTED_EDGE('',*,*,#238,.T.);
#240=ORIENTED_EDGE('',*,*,#81,.F.);
#241=ORIENTED_EDGE('',*,*,#130,.T.);
#242=ORIENTED_EDGE('',*,*,#213,.F.);
#243=ORIENTED_EDGE('',*,*,#139,.F.);
#244=ORIENTED_EDGE('',*,*,#114,.F.);
#245=CARTESIAN_POINT('',(2.15,-1.1,0.));
#246=DIRECTION('',(-0.,1.,0.));
#247=VECTOR('',#246,12.2);
#248=LINE('',#245,#247);
#249=EDGE_CURVE('',#224,#101,#248,.T.);
#250=ORIENTED_EDGE('',*,*,#249,.F.);
#251=EDGE_LOOP('',(#233,#239,#240,#241,#242,#243,#244,#250));
#252=FACE_BOUND('',#251,.T.);
#253=ADVANCED_FACE('',(#252),#222,.T.);
#254=CARTESIAN_POINT('',(-0.,-1.1,0.));
#255=DIRECTION('',(0.,-1.,-0.));
#256=DIRECTION('',(1.,0.,0.));
#257=AXIS2_PLACEMENT_3D('',#254,#255,#256);
#258=PLANE('',#257);
#259=CARTESIAN_POINT('',(-0.,-1.1,-1.15));
#260=VERTEX_POINT('',#259);
#261=CARTESIAN_POINT('',(-0.,-1.1,1.15));
#262=VERTEX_POINT('',#261);
#263=CARTESIAN_POINT('',(-0.,-1.1,-0.));
#264=DIRECTION('',(0.,-1.,-0.));
#265=DIRECTION('',(-0.,-0.,1.));
#266=AXIS2_PLACEMENT_3D('',#263,#264,#265);
#267=CIRCLE('',#266,1.15);
#268=EDGE_CURVE('',#260,#262,#267,.T.);
#269=ORIENTED_EDGE('',*,*,#268,.F.);
#270=CARTESIAN_POINT('',(-0.,-1.1,-0.));
#271=DIRECTION('',(0.,-1.,-0.));
#272=DIRECTION('',(-0.,-0.,1.));
#273=AXIS2_PLACEMENT_3D('',#270,#271,#272);
#274=CIRCLE('',#273,1.15);
#275=EDGE_CURVE('',#262,#260,#274,.T.);
#276=ORIENTED_EDGE('',*,*,#275,.F.);
#277=EDGE_LOOP('',(#269,#276));
#278=FACE_BOUND('',#277,.T.);
#279=ORIENTED_EDGE('',*,*,#232,.F.);
#280=CARTESIAN_POINT('',(-0.,-1.1,-0.));
#281=DIRECTION('',(-0.,1.,0.));
#282=DIRECTION('',(-1.,-0.,-0.));
#283=AXIS2_PLACEMENT_3D('',#280,#281,#282);
#284=CIRCLE('',#283,2.15);
#285=EDGE_CURVE('',#226,#224,#284,.T.);
#286=ORIENTED_EDGE('',*,*,#285,.F.);
#287=EDGE_LOOP('',(#279,#286));
#288=FACE_BOUND('',#287,.T.);
#289=ADVANCED_FACE('',(#278,#288),#258,.T.);
#290=CARTESIAN_POINT('',(-0.,-5.1,-0.));
#291=DIRECTION('',(0.,-1.,-0.));
#292=DIRECTION('',(-0.,-0.,1.));
#293=AXIS2_PLACEMENT_3D('',#290,#291,#292);
#294=CYLINDRICAL_SURFACE('',#293,1.15);
#295=ORIENTED_EDGE('',*,*,#268,.T.);
#296=CARTESIAN_POINT('',(-0.,-5.1,1.15));
#297=VERTEX_POINT('',#296);
#298=CARTESIAN_POINT('',(-0.,-1.1,1.15));
#299=DIRECTION('',(0.,-1.,0.));
#300=VECTOR('',#299,4.);
#301=LINE('',#298,#300);
#302=EDGE_CURVE('',#262,#297,#301,.T.);
#303=ORIENTED_EDGE('',*,*,#302,.T.);
#304=CARTESIAN_POINT('',(-0.,-5.1,-1.15));
#305=VERTEX_POINT('',#304);
#306=CARTESIAN_POINT('',(-0.,-5.1,-0.));
#307=DIRECTION('',(0.,-1.,-0.));
#308=DIRECTION('',(-0.,-0.,1.));
#309=AXIS2_PLACEMENT_3D('',#306,#307,#308);
#310=CIRCLE('',#309,1.15);
#311=EDGE_CURVE('',#305,#297,#310,.T.);
#312=ORIENTED_EDGE('',*,*,#311,.F.);
#313=CARTESIAN_POINT('',(-0.,-1.1,-1.15));
#314=DIRECTION('',(0.,-1.,0.));
#315=VECTOR('',#314,4.);
#316=LINE('',#313,#315);
#317=EDGE_CURVE('',#260,#305,#316,.T.);
#318=ORIENTED_EDGE('',*,*,#317,.F.);
#319=EDGE_LOOP('',(#295,#303,#312,#318));
#320=FACE_BOUND('',#319,.T.);
#321=ADVANCED_FACE('',(#320),#294,.T.);
#322=CARTESIAN_POINT('',(-0.,-5.1,-0.));
#323=DIRECTION('',(0.,-1.,-0.));
#324=DIRECTION('',(1.,0.,0.));
#325=AXIS2_PLACEMENT_3D('',#322,#323,#324);
#326=PLANE('',#325);
#327=ORIENTED_EDGE('',*,*,#311,.T.);
#328=CARTESIAN_POINT('',(-0.,-5.1,-0.));
#329=DIRECTION('',(0.,-1.,-0.));
#330=DIRECTION('',(-0.,-0.,1.));
#331=AXIS2_PLACEMENT_3D('',#328,#329,#330);
#332=CIRCLE('',#331,1.15);
#333=EDGE_CURVE('',#297,#305,#332,.T.);
#334=ORIENTED_EDGE('',*,*,#333,.T.);
#335=EDGE_LOOP('',(#327,#334));
#336=FACE_BOUND('',#335,.T.);
#337=CARTESIAN_POINT('',(1.5,-5.1,-0.));
#338=VERTEX_POINT('',#337);
#339=CARTESIAN_POINT('',(-0.,-5.1,1.5));
#340=VERTEX_POINT('',#339);
#341=CARTESIAN_POINT('',(0.,-5.1,-0.));
#342=DIRECTION('',(0.,-1.,-0.));
#343=DIRECTION('',(-1.,-0.,-0.));
#344=AXIS2_PLACEMENT_3D('',#341,#342,#343);
#345=CIRCLE('',#344,1.5);
#346=EDGE_CURVE('',#338,#340,#345,.T.);
#347=ORIENTED_EDGE('',*,*,#346,.F.);
#348=CARTESIAN_POINT('',(-1.5,-5.1,-0.));
#349=VERTEX_POINT('',#348);
#350=CARTESIAN_POINT('',(0.,-5.1,-0.));
#351=DIRECTION('',(0.,-1.,-0.));
#352=DIRECTION('',(-1.,-0.,-0.));
#353=AXIS2_PLACEMENT_3D('',#350,#351,#352);
#354=CIRCLE('',#353,1.5);
#355=EDGE_CURVE('',#349,#338,#354,.T.);
#356=ORIENTED_EDGE('',*,*,#355,.F.);
#357=CARTESIAN_POINT('',(0.,-5.1,-0.));
#358=DIRECTION('',(0.,-1.,-0.));
#359=DIRECTION('',(-1.,-0.,-0.));
#360=AXIS2_PLACEMENT_3D('',#357,#358,#359);
#361=CIRCLE('',#360,1.5);
#362=EDGE_CURVE('',#340,#349,#361,.T.);
#363=ORIENTED_EDGE('',*,*,#362,.F.);
#364=EDGE_LOOP('',(#347,#356,#363));
#365=FACE_BOUND('',#364,.T.);
#366=ADVANCED_FACE('',(#336,#365),#326,.F.);
#367=CARTESIAN_POINT('',(0.,-9.6,-0.));
#368=DIRECTION('',(-0.,1.,0.));
#369=DIRECTION('',(-1.,-0.,-0.));
#370=AXIS2_PLACEMENT_3D('',#367,#368,#369);
#371=CYLINDRICAL_SURFACE('',#370,1.5);
#372=CARTESIAN_POINT('',(-1.5,-9.6,-0.));
#373=VERTEX_POINT('',#372);
#374=CARTESIAN_POINT('',(1.5,-9.6,-0.));
#375=VERTEX_POINT('',#374);
#376=CARTESIAN_POINT('',(0.,-9.6,-0.));
#377=DIRECTION('',(-0.,1.,0.));
#378=DIRECTION('',(-1.,-0.,-0.));
#379=AXIS2_PLACEMENT_3D('',#376,#377,#378);
#380=CIRCLE('',#379,1.5);
#381=EDGE_CURVE('',#373,#375,#380,.T.);
#382=ORIENTED_EDGE('',*,*,#381,.T.);
#383=CARTESIAN_POINT('',(1.5,-9.6,-0.));
#384=DIRECTION('',(-0.,1.,0.));
#385=VECTOR('',#384,4.5);
#386=LINE('',#383,#385);
#387=EDGE_CURVE('',#375,#338,#386,.T.);
#388=ORIENTED_EDGE('',*,*,#387,.T.);
#389=ORIENTED_EDGE('',*,*,#346,.T.);
#390=ORIENTED_EDGE('',*,*,#362,.T.);
#391=CARTESIAN_POINT('',(-1.5,-9.6,-0.));
#392=DIRECTION('',(-0.,1.,0.));
#393=VECTOR('',#392,4.5);
#394=LINE('',#391,#393);
#395=EDGE_CURVE('',#373,#349,#394,.T.);
#396=ORIENTED_EDGE('',*,*,#395,.F.);
#397=EDGE_LOOP('',(#382,#388,#389,#390,#396));
#398=FACE_BOUND('',#397,.T.);
#399=ADVANCED_FACE('',(#398),#371,.T.);
#400=CARTESIAN_POINT('',(0.,-10.1,-0.));
#401=DIRECTION('',(-0.,1.,0.));
#402=DIRECTION('',(-1.,-0.,-0.));
#403=AXIS2_PLACEMENT_3D('',#400,#401,#402);
#404=CONICAL_SURFACE('',#403,1.,45.);
#405=ORIENTED_EDGE('',*,*,#381,.F.);
#406=CARTESIAN_POINT('',(-1.,-10.1,0.));
#407=VERTEX_POINT('',#406);
#408=CARTESIAN_POINT('',(-1.,-10.1,-0.));
#409=DIRECTION('',(-0.707106781,0.707106781,0.));
#410=VECTOR('',#409,0.707106781);
#411=LINE('',#408,#410);
#412=EDGE_CURVE('',#407,#373,#411,.T.);
#413=ORIENTED_EDGE('',*,*,#412,.F.);
#414=CARTESIAN_POINT('',(1.,-10.1,-0.));
#415=VERTEX_POINT('',#414);
#416=CARTESIAN_POINT('',(0.,-10.1,-0.));
#417=DIRECTION('',(0.,-1.,-0.));
#418=DIRECTION('',(-1.,-0.,-0.));
#419=AXIS2_PLACEMENT_3D('',#416,#417,#418);
#420=CIRCLE('',#419,1.);
#421=EDGE_CURVE('',#415,#407,#420,.T.);
#422=ORIENTED_EDGE('',*,*,#421,.F.);
#423=CARTESIAN_POINT('',(1.,-10.1,-0.));
#424=DIRECTION('',(0.707106781,0.707106781,0.));
#425=VECTOR('',#424,0.707106781);
#426=LINE('',#423,#425);
#427=EDGE_CURVE('',#415,#375,#426,.T.);
#428=ORIENTED_EDGE('',*,*,#427,.T.);
#429=EDGE_LOOP('',(#405,#413,#422,#428));
#430=FACE_BOUND('',#429,.T.);
#431=ADVANCED_FACE('',(#430),#404,.T.);
#432=CARTESIAN_POINT('',(0.,-10.1,-0.));
#433=DIRECTION('',(0.,-1.,-0.));
#434=DIRECTION('',(1.,0.,0.));
#435=AXIS2_PLACEMENT_3D('',#432,#433,#434);
#436=PLANE('',#435);
#437=CARTESIAN_POINT('',(0.,-10.1,-0.));
#438=DIRECTION('',(0.,-1.,-0.));
#439=DIRECTION('',(-1.,-0.,-0.));
#440=AXIS2_PLACEMENT_3D('',#437,#438,#439);
#441=CIRCLE('',#440,1.);
#442=EDGE_CURVE('',#407,#415,#441,.T.);
#443=ORIENTED_EDGE('',*,*,#442,.T.);
#444=ORIENTED_EDGE('',*,*,#421,.T.);
#445=EDGE_LOOP('',(#443,#444));
#446=FACE_BOUND('',#445,.T.);
#447=ADVANCED_FACE('',(#446),#436,.T.);
#448=CARTESIAN_POINT('',(-0.,11.367949192,0.));
#449=DIRECTION('',(0.,-1.,-0.));
#450=DIRECTION('',(1.,0.,0.));
#451=AXIS2_PLACEMENT_3D('',#448,#449,#450);
#452=CONICAL_SURFACE('',#451,2.15,30.);
#453=CARTESIAN_POINT('',(2.059313693,11.4,0.55));
#454=VERTEX_POINT('',#453);
#455=CARTESIAN_POINT('',(2.078460969,11.367949192,0.55));
#456=VERTEX_POINT('',#455);
#457=CARTESIAN_POINT('',(2.059313693,11.4,0.55));
#458=CARTESIAN_POINT('',(2.068845954,11.384048753,0.55));
#459=CARTESIAN_POINT('',(2.078460969,11.367949192,0.55));
#460=(BOUNDED_CURVE()
B_SPLINE_CURVE(2,(#457,#458,#459),.UNSPECIFIED.,.F.,.F.)
B_SPLINE_CURVE_WITH_KNOTS((3,3),(0.041541558,0.068012857),.UNSPECIFIED.)
CURVE()
GEOMETRIC_REPRESENTATION_ITEM()
RATIONAL_B_SPLINE_CURVE((1.003949824,1.003206217,1.002443111))
REPRESENTATION_ITEM(''));
#461=EDGE_CURVE('',#454,#456,#460,.T.);
#462=ORIENTED_EDGE('',*,*,#461,.F.);
#463=CARTESIAN_POINT('',(1.009950494,13.1,0.55));
#464=VERTEX_POINT('',#463);
#465=CARTESIAN_POINT('',(2.059313693,11.4,0.55));
#466=CARTESIAN_POINT('',(1.3776998,12.540609952,0.55));
#467=CARTESIAN_POINT('',(1.009950494,13.1,0.55));
#468=(BOUNDED_CURVE()
B_SPLINE_CURVE(2,(#465,#466,#467),.UNSPECIFIED.,.F.,.F.)
B_SPLINE_CURVE_WITH_KNOTS((3,3),(0.068012857,2.068292514),.UNSPECIFIED.)
CURVE()
GEOMETRIC_REPRESENTATION_ITEM()
RATIONAL_B_SPLINE_CURVE((1.003949824,1.060139861,1.004996709))
REPRESENTATION_ITEM(''));
#469=EDGE_CURVE('',#454,#464,#468,.T.);
#470=ORIENTED_EDGE('',*,*,#469,.T.);
#471=CARTESIAN_POINT('',(-1.009950494,13.1,0.55));
#472=VERTEX_POINT('',#471);
#473=CARTESIAN_POINT('',(-0.,13.1,0.));
#474=DIRECTION('',(-0.,1.,0.));
#475=DIRECTION('',(1.,0.,0.));
#476=AXIS2_PLACEMENT_3D('',#473,#474,#475);
#477=CIRCLE('',#476,1.15);
#478=EDGE_CURVE('',#472,#464,#477,.T.);
#479=ORIENTED_EDGE('',*,*,#478,.F.);
#480=CARTESIAN_POINT('',(-2.059313693,11.4,0.55));
#481=VERTEX_POINT('',#480);
#482=CARTESIAN_POINT('',(-1.009950494,13.1,0.55));
#483=CARTESIAN_POINT('',(-1.3776998,12.540609952,0.55));
#484=CARTESIAN_POINT('',(-2.059313693,11.4,0.55));
#485=(BOUNDED_CURVE()
B_SPLINE_CURVE(2,(#482,#483,#484),.UNSPECIFIED.,.F.,.F.)
B_SPLINE_CURVE_WITH_KNOTS((3,3),(0.086821829,2.087101486),.UNSPECIFIED.)
CURVE()
GEOMETRIC_REPRESENTATION_ITEM()
RATIONAL_B_SPLINE_CURVE((1.004996709,1.060139861,1.003949824))
REPRESENTATION_ITEM(''));
#486=EDGE_CURVE('',#472,#481,#485,.T.);
#487=ORIENTED_EDGE('',*,*,#486,.T.);
#488=CARTESIAN_POINT('',(-2.078460969,11.367949192,0.55));
#489=VERTEX_POINT('',#488);
#490=CARTESIAN_POINT('',(-2.078460969,11.367949192,0.55));
#491=CARTESIAN_POINT('',(-2.068845954,11.384048753,0.55));
#492=CARTESIAN_POINT('',(-2.059313693,11.4,0.55));
#493=(BOUNDED_CURVE()
B_SPLINE_CURVE(2,(#490,#491,#492),.UNSPECIFIED.,.F.,.F.)
B_SPLINE_CURVE_WITH_KNOTS((3,3),(2.087101486,2.113572785),.UNSPECIFIED.)
CURVE()
GEOMETRIC_REPRESENTATION_ITEM()
RATIONAL_B_SPLINE_CURVE((1.002443111,1.003206217,1.003949824))
REPRESENTATION_ITEM(''));
#494=EDGE_CURVE('',#489,#481,#493,.T.);
#495=ORIENTED_EDGE('',*,*,#494,.F.);
#496=CARTESIAN_POINT('',(-0.,11.367949192,0.));
#497=DIRECTION('',(-0.,1.,0.));
#498=DIRECTION('',(-1.,-0.,-0.));
#499=AXIS2_PLACEMENT_3D('',#496,#497,#498);
#500=CIRCLE('',#499,2.15);
#501=EDGE_CURVE('',#489,#456,#500,.T.);
#502=ORIENTED_EDGE('',*,*,#501,.T.);
#503=EDGE_LOOP('',(#462,#470,#479,#487,#495,#502));
#504=FACE_BOUND('',#503,.T.);
#505=ADVANCED_FACE('',(#504),#452,.T.);
#506=CARTESIAN_POINT('',(-0.,13.1,0.));
#507=DIRECTION('',(-0.,1.,0.));
#508=DIRECTION('',(-1.,-0.,-0.));
#509=AXIS2_PLACEMENT_3D('',#506,#507,#508);
#510=PLANE('',#509);
#511=CARTESIAN_POINT('',(12346.029656846,13.100000004,0.55));
#512=DIRECTION('',(-1.,-0.,-0.));
#513=VECTOR('',#512,24690.);
#514=LINE('',#511,#513);
#515=EDGE_CURVE('',#464,#472,#514,.T.);
#516=ORIENTED_EDGE('',*,*,#515,.T.);
#517=ORIENTED_EDGE('',*,*,#478,.T.);
#518=EDGE_LOOP('',(#516,#517));
#519=FACE_BOUND('',#518,.T.);
#520=ADVANCED_FACE('',(#519),#510,.T.);
#521=CARTESIAN_POINT('',(2.059313693,11.4,0.55));
#522=DIRECTION('',(-0.,-0.,1.));
#523=DIRECTION('',(-1.,-0.,-0.));
#524=AXIS2_PLACEMENT_3D('',#521,#522,#523);
#525=PLANE('',#524);
#526=CARTESIAN_POINT('',(2.078460971,-12346.1,0.55));
#527=DIRECTION('',(-0.,1.,0.));
#528=VECTOR('',#527,24690.);
#529=LINE('',#526,#528);
#530=EDGE_CURVE('',#93,#456,#529,.T.);
#531=ORIENTED_EDGE('',*,*,#530,.F.);
#532=ORIENTED_EDGE('',*,*,#98,.F.);
#533=CARTESIAN_POINT('',(-2.078460967,-12346.1,0.55));
#534=DIRECTION('',(-0.,1.,0.));
#535=VECTOR('',#534,24690.);
#536=LINE('',#533,#535);
#537=EDGE_CURVE('',#84,#489,#536,.T.);
#538=ORIENTED_EDGE('',*,*,#537,.T.);
#539=ORIENTED_EDGE('',*,*,#494,.T.);
#540=ORIENTED_EDGE('',*,*,#486,.F.);
#541=ORIENTED_EDGE('',*,*,#515,.F.);
#542=ORIENTED_EDGE('',*,*,#469,.F.);
#543=ORIENTED_EDGE('',*,*,#461,.T.);
#544=EDGE_LOOP('',(#531,#532,#538,#539,#540,#541,#542,#543));
#545=FACE_BOUND('',#544,.T.);
#546=ADVANCED_FACE('',(#545),#525,.F.);
#547=CARTESIAN_POINT('',(0.,-10.1,-0.));
#548=DIRECTION('',(-0.,1.,0.));
#549=DIRECTION('',(-1.,-0.,-0.));
#550=AXIS2_PLACEMENT_3D('',#547,#548,#549);
#551=CONICAL_SURFACE('',#550,1.,45.);
#552=ORIENTED_EDGE('',*,*,#442,.F.);
#553=ORIENTED_EDGE('',*,*,#412,.T.);
#554=CARTESIAN_POINT('',(0.,-9.6,-0.));
#555=DIRECTION('',(-0.,1.,0.));
#556=DIRECTION('',(-1.,-0.,-0.));
#557=AXIS2_PLACEMENT_3D('',#554,#555,#556);
#558=CIRCLE('',#557,1.5);
#559=EDGE_CURVE('',#375,#373,#558,.T.);
#560=ORIENTED_EDGE('',*,*,#559,.F.);
#561=ORIENTED_EDGE('',*,*,#427,.F.);
#562=EDGE_LOOP('',(#552,#553,#560,#561));
#563=FACE_BOUND('',#562,.T.);
#564=ADVANCED_FACE('',(#563),#551,.T.);
#565=CARTESIAN_POINT('',(0.,-9.6,-0.));
#566=DIRECTION('',(-0.,1.,0.));
#567=DIRECTION('',(-1.,-0.,-0.));
#568=AXIS2_PLACEMENT_3D('',#565,#566,#567);
#569=CYLINDRICAL_SURFACE('',#568,1.5);
#570=ORIENTED_EDGE('',*,*,#395,.T.);
#571=ORIENTED_EDGE('',*,*,#355,.T.);
#572=ORIENTED_EDGE('',*,*,#387,.F.);
#573=ORIENTED_EDGE('',*,*,#559,.T.);
#574=EDGE_LOOP('',(#570,#571,#572,#573));
#575=FACE_BOUND('',#574,.T.);
#576=ADVANCED_FACE('',(#575),#569,.T.);
#577=CARTESIAN_POINT('',(-0.,-5.1,-0.));
#578=DIRECTION('',(0.,-1.,-0.));
#579=DIRECTION('',(-0.,-0.,1.));
#580=AXIS2_PLACEMENT_3D('',#577,#578,#579);
#581=CYLINDRICAL_SURFACE('',#580,1.15);
#582=ORIENTED_EDGE('',*,*,#302,.F.);
#583=ORIENTED_EDGE('',*,*,#275,.T.);
#584=ORIENTED_EDGE('',*,*,#317,.T.);
#585=ORIENTED_EDGE('',*,*,#333,.F.);
#586=EDGE_LOOP('',(#582,#583,#584,#585));
#587=FACE_BOUND('',#586,.T.);
#588=ADVANCED_FACE('',(#587),#581,.T.);
#589=CARTESIAN_POINT('',(-0.,-1.1,-0.));
#590=DIRECTION('',(-0.,1.,0.));
#591=DIRECTION('',(-1.,-0.,-0.));
#592=AXIS2_PLACEMENT_3D('',#589,#590,#591);
#593=CYLINDRICAL_SURFACE('',#592,2.15);
#594=ORIENTED_EDGE('',*,*,#238,.F.);
#595=ORIENTED_EDGE('',*,*,#285,.T.);
#596=ORIENTED_EDGE('',*,*,#249,.T.);
#597=ORIENTED_EDGE('',*,*,#107,.F.);
#598=ORIENTED_EDGE('',*,*,#530,.T.);
#599=ORIENTED_EDGE('',*,*,#501,.F.);
#600=ORIENTED_EDGE('',*,*,#537,.F.);
#601=ORIENTED_EDGE('',*,*,#90,.F.);
#602=EDGE_LOOP('',(#594,#595,#596,#597,#598,#599,#600,#601));
#603=FACE_BOUND('',#602,.T.);
#604=ADVANCED_FACE('',(#603),#593,.T.);
#605=CLOSED_SHELL('',(#118,#181,#197,#217,#253,#289,#321,#366,#399,#431,#447,#505,#520,#546,#564,#576,#588,#604));
#606=MANIFOLD_SOLID_BREP('alibrePartClosedBody',#605);
#607=COLOUR_RGB('',0.729411781,0.768627465,0.784313738);
#608=FILL_AREA_STYLE_COLOUR('',#607);
#609=FILL_AREA_STYLE('',(#608));
#610=SURFACE_STYLE_FILL_AREA(#609);
#611=SURFACE_SIDE_STYLE('',(#610));
#612=SURFACE_STYLE_USAGE(.BOTH.,#611);
#613=PRESENTATION_STYLE_ASSIGNMENT((#612));
#58=STYLED_ITEM('',(#613),#606);
#614=INTEGER_REPRESENTATION_ITEM('ATTRIB_BOUNDING_BOX_ALGORITHM',3);
#615=ID_ATTRIBUTE('SA #616',#616);
#616=SHAPE_ASPECT('properties','',#46,.F.);
#617=GEOMETRIC_ITEM_SPECIFIC_USAGE('','properties',#616,#40,#606);
#618=PROPERTY_DEFINITION('ATTRIB_BOUNDING_BOX_ALGORITHM','',#616);
#619=REPRESENTATION('',(#614),#33);
#620=PROPERTY_DEFINITION_REPRESENTATION(#618,#619);
#621=GENERAL_PROPERTY('','ATTRIB_BOUNDING_BOX_ALGORITHM','');
#622=GENERAL_PROPERTY_ASSOCIATION('','',#621,#618);
#39=SHAPE_REPRESENTATION('6062-1 Coding element - HC-CST-MOD - 1636127',(#38),#33);
#40=ADVANCED_BREP_SHAPE_REPRESENTATION('6062-1 Coding element - HC-CST-MOD - 1636127',(#606),#33);
#630=SHAPE_REPRESENTATION_RELATIONSHIP('','',#39,#40);
#631=CARTESIAN_POINT('',(0.,0.,0.));
#632=DIRECTION('',(0.,0.,1.));
#633=DIRECTION('',(1.,0.,0.));
#634=AXIS2_PLACEMENT_3D('',#631,#632,#633);
#636=MAPPED_ITEM('',#635,#634);
#635=REPRESENTATION_MAP(#634,#39);
#637=APPLICATION_CONTEXT('Managed model based 3d engineering');
#638=APPLICATION_PROTOCOL_DEFINITION('international standard','ap242_managed_model_based_3d_engineering',2013,#637);
#639=PRODUCT_CONTEXT('',#637,'mechanical');
#640=PRODUCT_DEFINITION_CONTEXT('part definition',#637,'design');
#47=PRODUCT('6062-1 Coding element - HC-CST-MOD - 1636127','6062-1 Coding element - HC-CST-MOD - 1636127','',(#639));
#641=PRODUCT_RELATED_PRODUCT_CATEGORY('part','',(#47));
#642=PRODUCT_DEFINITION_FORMATION_WITH_SPECIFIED_SOURCE('','',#47,.NOT_KNOWN.);
#48=PRODUCT_DEFINITION('design','',#642,#640);
#46=PRODUCT_DEFINITION_SHAPE('','',#48);
#643=SHAPE_DEFINITION_REPRESENTATION(#46,#39);
#34=DRAUGHTING_MODEL('',(#636),#33);
#16=SHAPE_REPRESENTATION('6062 Coding element - HC-CST-MOD - 1636127',(#15,#52),#10);
#644=CARTESIAN_POINT('',(0.,0.,0.));
#645=DIRECTION('',(0.,0.,1.));
#646=DIRECTION('',(1.,0.,0.));
#647=AXIS2_PLACEMENT_3D('',#644,#645,#646);
#649=MAPPED_ITEM('',#648,#647);
#648=REPRESENTATION_MAP(#647,#16);
#24=PRODUCT('6062 Coding element - HC-CST-MOD - 1636127','6062 Coding element - HC-CST-MOD - 1636127','',(#639));
#650=PRODUCT_RELATED_PRODUCT_CATEGORY('part','',(#24));
#651=PRODUCT_DEFINITION_FORMATION_WITH_SPECIFIED_SOURCE('','',#24,.NOT_KNOWN.);
#25=PRODUCT_DEFINITION('design','',#651,#640);
#23=PRODUCT_DEFINITION_SHAPE('','',#25);
#652=SHAPE_DEFINITION_REPRESENTATION(#23,#16);
#11=DRAUGHTING_MODEL('',(#649),#10);
#1=MECHANICAL_DESIGN_GEOMETRIC_PRESENTATION_REPRESENTATION('',(#58),#10);
ENDSEC;
END-ISO-10303-21;
