ISO-10303-21;
HEADER;
/* Generated by software containing ST-Developer
 * from STEP Tools, Inc. (www.steptools.com) 
 */

FILE_DESCRIPTION(
/* description */ ('Alibre Inc.'),
/* implementation_level */ '2;1');

FILE_NAME(
/* name */ 'export-85178B88-73FC-4B96-AA2C-14E25532BE27',
/* time_stamp */ '2020-08-07T17:24:08+02:00',
/* author */ (''),
/* organization */ (''),
/* preprocessor_version */ 'ST-DEVELOPER v17',
/* originating_system */ 'Alibre',
/* authorisation */ '');

FILE_SCHEMA (('AUTOMOTIVE_DESIGN'));
ENDSEC;

DATA;
#10=CONTEXT_DEPENDENT_SHAPE_REPRESENTATION(#13,#29);
#11=NEXT_ASSEMBLY_USAGE_OCCURRENCE('NAUO_ID9','NAUO_NAME9',$,#31,#30,$);
#12=ITEM_DEFINED_TRANSFORMATION('ITD_NAME0',$,#370,#369);
#13=(
REPRESENTATION_RELATIONSHIP('5307-2 Flat nut - SACC-E-MU-M 8 - 1504071',
$,#42,#43)
REPRESENTATION_RELATIONSHIP_WITH_TRANSFORMATION(#12)
SHAPE_REPRESENTATION_RELATIONSHIP()
);
#14=STYLED_ITEM('NAME_0',(#22),#554);
#15=MECHANICAL_DESIGN_GEOMETRIC_PRESENTATION_REPRESENTATION('NAME_0',(#14),
#53);
#16=COLOUR_RGB('',0.6,0.6,0.6);
#17=FILL_AREA_STYLE_COLOUR('NAME_0',#16);
#18=FILL_AREA_STYLE('NAME_0',(#17));
#19=SURFACE_STYLE_FILL_AREA(#18);
#20=SURFACE_SIDE_STYLE('NAME_0',(#19));
#21=SURFACE_STYLE_USAGE(.POSITIVE.,#20);
#22=PRESENTATION_STYLE_ASSIGNMENT((#21));
#23=PRODUCT_DEFINITION_CONTEXT('part definition',#37,'design');
#24=PRODUCT_DEFINITION_CONTEXT('part definition',#37,'design');
#25=SHAPE_DEFINITION_REPRESENTATION(#27,#42);
#26=SHAPE_DEFINITION_REPRESENTATION(#28,#43);
#27=PRODUCT_DEFINITION_SHAPE('PRODUCT_VERSION_ID',
'PRODUCT_VERSION_DESCR',#30);
#28=PRODUCT_DEFINITION_SHAPE('PRODUCT_VERSION_ID',
'PRODUCT_VERSION_DESCR',#31);
#29=PRODUCT_DEFINITION_SHAPE('NAME_10',$,#11);
#30=PRODUCT_DEFINITION('5307-2 Flat nut - SACC-E-MU-M 8 - 1504071',
'PRODUCT_VERSION_DESCR',#32,#23);
#31=PRODUCT_DEFINITION('PRODUCT_VERSION_ID','PRODUCT_VERSION_DESCR',#33,
#24);
#32=PRODUCT_DEFINITION_FORMATION_WITH_SPECIFIED_SOURCE(
'PRODUCT_VERSION_ID','PRODUCT_VERSION_DESCR',#40,.MADE.);
#33=PRODUCT_DEFINITION_FORMATION_WITH_SPECIFIED_SOURCE(
'PRODUCT_VERSION_ID','PRODUCT_VERSION_DESCR',#41,.MADE.);
#34=PRODUCT_RELATED_PRODUCT_CATEGORY('part','part',(#40));
#35=PRODUCT_RELATED_PRODUCT_CATEGORY('part','part',(#41));
#36=APPLICATION_PROTOCOL_DEFINITION('Draft International Standard',
'automotive_design',1994,#37);
#37=APPLICATION_CONTEXT('automotive_Design');
#38=PRODUCT_CONTEXT('3D Mechanical Parts',#37,'mechanical');
#39=PRODUCT_CONTEXT('3D Mechanical Parts',#37,'mechanical');
#40=PRODUCT('1504071','5307-2 Flat nut - SACC-E-MU-M 8 - 1504071','',(#38));
#41=PRODUCT('1504071','5307 Flat nut - SACC-E-MU-M 8 - 1504071','',(#39));
#42=SHAPE_REPRESENTATION('5307-2 Flat nut - SACC-E-MU-M 8 - 1504071',(#370),
#53);
#43=SHAPE_REPRESENTATION('NAME_0',(#369),#54);
#44=SHAPE_REPRESENTATION_RELATIONSHIP('NAME_0',$,#42,#555);
#45=(
LENGTH_UNIT()
NAMED_UNIT(*)
SI_UNIT(.MILLI.,.METRE.)
);
#46=(
LENGTH_UNIT()
NAMED_UNIT(*)
SI_UNIT(.MILLI.,.METRE.)
);
#47=(
NAMED_UNIT(*)
PLANE_ANGLE_UNIT()
SI_UNIT($,.RADIAN.)
);
#48=(
NAMED_UNIT(*)
PLANE_ANGLE_UNIT()
SI_UNIT($,.RADIAN.)
);
#49=(
NAMED_UNIT(*)
SI_UNIT($,.STERADIAN.)
SOLID_ANGLE_UNIT()
);
#50=(
NAMED_UNIT(*)
SI_UNIT($,.STERADIAN.)
SOLID_ANGLE_UNIT()
);
#51=UNCERTAINTY_MEASURE_WITH_UNIT(LENGTH_MEASURE(1.E-6),#45,
'DISTANCE_ACCURACY_VALUE',
'Maximum model space distance between geometric entities at asserted c
onnectivities');
#52=UNCERTAINTY_MEASURE_WITH_UNIT(LENGTH_MEASURE(1.E-6),#46,
'DISTANCE_ACCURACY_VALUE',
'Maximum model space distance between geometric entities at asserted c
onnectivities');
#53=(
GEOMETRIC_REPRESENTATION_CONTEXT(3)
GLOBAL_UNCERTAINTY_ASSIGNED_CONTEXT((#51))
GLOBAL_UNIT_ASSIGNED_CONTEXT((#49,#47,#45))
REPRESENTATION_CONTEXT('ID1','3D')
);
#54=(
GEOMETRIC_REPRESENTATION_CONTEXT(3)
GLOBAL_UNCERTAINTY_ASSIGNED_CONTEXT((#52))
GLOBAL_UNIT_ASSIGNED_CONTEXT((#50,#48,#46))
REPRESENTATION_CONTEXT('ID1','3D')
);
#55=CYLINDRICAL_SURFACE('',#355,5.75);
#56=CYLINDRICAL_SURFACE('',#356,5.75);
#57=CYLINDRICAL_SURFACE('',#357,5.75);
#58=CYLINDRICAL_SURFACE('',#358,5.75);
#59=CYLINDRICAL_SURFACE('',#359,5.75);
#60=CYLINDRICAL_SURFACE('',#360,5.75);
#61=CYLINDRICAL_SURFACE('',#367,3.7295);
#62=CYLINDRICAL_SURFACE('',#368,3.7295);
#63=VECTOR('',#378,1.);
#64=VECTOR('',#381,1.);
#65=VECTOR('',#384,1.);
#66=VECTOR('',#387,1.);
#67=VECTOR('',#390,1.);
#68=VECTOR('',#393,1.);
#69=VECTOR('',#401,1.);
#70=VECTOR('',#404,1.);
#71=VECTOR('',#407,1.);
#72=VECTOR('',#410,1.);
#73=VECTOR('',#413,1.);
#74=VECTOR('',#416,1.);
#75=VECTOR('',#419,1.);
#76=VECTOR('',#420,1.);
#77=VECTOR('',#423,1.);
#78=VECTOR('',#424,1.);
#79=VECTOR('',#427,1.);
#80=VECTOR('',#428,1.);
#81=VECTOR('',#431,1.);
#82=VECTOR('',#432,1.);
#83=VECTOR('',#435,1.);
#84=VECTOR('',#436,1.);
#85=VECTOR('',#439,1.);
#86=VECTOR('',#440,1.);
#87=VECTOR('',#449,1.);
#88=VECTOR('',#450,1.);
#89=LINE('',#465,#63);
#90=LINE('',#469,#64);
#91=LINE('',#473,#65);
#92=LINE('',#477,#66);
#93=LINE('',#481,#67);
#94=LINE('',#485,#68);
#95=LINE('',#494,#69);
#96=LINE('',#498,#70);
#97=LINE('',#502,#71);
#98=LINE('',#506,#72);
#99=LINE('',#510,#73);
#100=LINE('',#514,#74);
#101=LINE('',#516,#75);
#102=LINE('',#517,#76);
#103=LINE('',#519,#77);
#104=LINE('',#520,#78);
#105=LINE('',#522,#79);
#106=LINE('',#523,#80);
#107=LINE('',#525,#81);
#108=LINE('',#526,#82);
#109=LINE('',#528,#83);
#110=LINE('',#529,#84);
#111=LINE('',#531,#85);
#112=LINE('',#532,#86);
#113=LINE('',#540,#87);
#114=LINE('',#541,#88);
#115=VERTEX_POINT('',#459);
#116=VERTEX_POINT('',#460);
#117=VERTEX_POINT('',#463);
#118=VERTEX_POINT('',#464);
#119=VERTEX_POINT('',#466);
#120=VERTEX_POINT('',#468);
#121=VERTEX_POINT('',#470);
#122=VERTEX_POINT('',#472);
#123=VERTEX_POINT('',#474);
#124=VERTEX_POINT('',#476);
#125=VERTEX_POINT('',#478);
#126=VERTEX_POINT('',#480);
#127=VERTEX_POINT('',#482);
#128=VERTEX_POINT('',#484);
#129=VERTEX_POINT('',#488);
#130=VERTEX_POINT('',#489);
#131=VERTEX_POINT('',#492);
#132=VERTEX_POINT('',#493);
#133=VERTEX_POINT('',#495);
#134=VERTEX_POINT('',#497);
#135=VERTEX_POINT('',#499);
#136=VERTEX_POINT('',#501);
#137=VERTEX_POINT('',#503);
#138=VERTEX_POINT('',#505);
#139=VERTEX_POINT('',#507);
#140=VERTEX_POINT('',#509);
#141=VERTEX_POINT('',#511);
#142=VERTEX_POINT('',#513);
#143=CIRCLE('',#338,3.7295);
#144=CIRCLE('',#339,3.7295);
#145=CIRCLE('',#340,5.75);
#146=CIRCLE('',#341,5.75);
#147=CIRCLE('',#342,5.75);
#148=CIRCLE('',#343,5.75);
#149=CIRCLE('',#344,5.75);
#150=CIRCLE('',#345,5.75);
#151=CIRCLE('',#347,3.7295);
#152=CIRCLE('',#348,3.7295);
#153=CIRCLE('',#349,5.75);
#154=CIRCLE('',#350,5.75);
#155=CIRCLE('',#351,5.75);
#156=CIRCLE('',#352,5.75);
#157=CIRCLE('',#353,5.75);
#158=CIRCLE('',#354,5.75);
#159=EDGE_CURVE('',#115,#116,#143,.T.);
#160=EDGE_CURVE('',#116,#115,#144,.T.);
#161=EDGE_CURVE('',#117,#118,#145,.T.);
#162=EDGE_CURVE('',#119,#117,#89,.T.);
#163=EDGE_CURVE('',#120,#119,#146,.T.);
#164=EDGE_CURVE('',#121,#120,#90,.T.);
#165=EDGE_CURVE('',#122,#121,#147,.T.);
#166=EDGE_CURVE('',#123,#122,#91,.T.);
#167=EDGE_CURVE('',#124,#123,#148,.T.);
#168=EDGE_CURVE('',#125,#124,#92,.T.);
#169=EDGE_CURVE('',#126,#125,#149,.T.);
#170=EDGE_CURVE('',#127,#126,#93,.T.);
#171=EDGE_CURVE('',#128,#127,#150,.T.);
#172=EDGE_CURVE('',#118,#128,#94,.T.);
#173=EDGE_CURVE('',#129,#130,#151,.T.);
#174=EDGE_CURVE('',#130,#129,#152,.T.);
#175=EDGE_CURVE('',#131,#132,#153,.T.);
#176=EDGE_CURVE('',#131,#133,#95,.T.);
#177=EDGE_CURVE('',#134,#133,#154,.T.);
#178=EDGE_CURVE('',#134,#135,#96,.T.);
#179=EDGE_CURVE('',#136,#135,#155,.T.);
#180=EDGE_CURVE('',#136,#137,#97,.T.);
#181=EDGE_CURVE('',#138,#137,#156,.T.);
#182=EDGE_CURVE('',#138,#139,#98,.T.);
#183=EDGE_CURVE('',#140,#139,#157,.T.);
#184=EDGE_CURVE('',#140,#141,#99,.T.);
#185=EDGE_CURVE('',#142,#141,#158,.T.);
#186=EDGE_CURVE('',#142,#132,#100,.T.);
#187=EDGE_CURVE('',#119,#131,#101,.T.);
#188=EDGE_CURVE('',#120,#132,#102,.T.);
#189=EDGE_CURVE('',#117,#133,#103,.T.);
#190=EDGE_CURVE('',#118,#134,#104,.T.);
#191=EDGE_CURVE('',#128,#135,#105,.T.);
#192=EDGE_CURVE('',#127,#136,#106,.T.);
#193=EDGE_CURVE('',#126,#137,#107,.T.);
#194=EDGE_CURVE('',#125,#138,#108,.T.);
#195=EDGE_CURVE('',#124,#139,#109,.T.);
#196=EDGE_CURVE('',#123,#140,#110,.T.);
#197=EDGE_CURVE('',#122,#141,#111,.T.);
#198=EDGE_CURVE('',#121,#142,#112,.T.);
#199=EDGE_CURVE('',#116,#130,#113,.T.);
#200=EDGE_CURVE('',#115,#129,#114,.T.);
#201=ORIENTED_EDGE('',*,*,#159,.T.);
#202=ORIENTED_EDGE('',*,*,#160,.T.);
#203=ORIENTED_EDGE('',*,*,#161,.F.);
#204=ORIENTED_EDGE('',*,*,#162,.F.);
#205=ORIENTED_EDGE('',*,*,#163,.F.);
#206=ORIENTED_EDGE('',*,*,#164,.F.);
#207=ORIENTED_EDGE('',*,*,#165,.F.);
#208=ORIENTED_EDGE('',*,*,#166,.F.);
#209=ORIENTED_EDGE('',*,*,#167,.F.);
#210=ORIENTED_EDGE('',*,*,#168,.F.);
#211=ORIENTED_EDGE('',*,*,#169,.F.);
#212=ORIENTED_EDGE('',*,*,#170,.F.);
#213=ORIENTED_EDGE('',*,*,#171,.F.);
#214=ORIENTED_EDGE('',*,*,#172,.F.);
#215=ORIENTED_EDGE('',*,*,#173,.F.);
#216=ORIENTED_EDGE('',*,*,#174,.F.);
#217=ORIENTED_EDGE('',*,*,#175,.F.);
#218=ORIENTED_EDGE('',*,*,#176,.T.);
#219=ORIENTED_EDGE('',*,*,#177,.F.);
#220=ORIENTED_EDGE('',*,*,#178,.T.);
#221=ORIENTED_EDGE('',*,*,#179,.F.);
#222=ORIENTED_EDGE('',*,*,#180,.T.);
#223=ORIENTED_EDGE('',*,*,#181,.F.);
#224=ORIENTED_EDGE('',*,*,#182,.T.);
#225=ORIENTED_EDGE('',*,*,#183,.F.);
#226=ORIENTED_EDGE('',*,*,#184,.T.);
#227=ORIENTED_EDGE('',*,*,#185,.F.);
#228=ORIENTED_EDGE('',*,*,#186,.T.);
#229=ORIENTED_EDGE('',*,*,#163,.T.);
#230=ORIENTED_EDGE('',*,*,#187,.T.);
#231=ORIENTED_EDGE('',*,*,#175,.T.);
#232=ORIENTED_EDGE('',*,*,#188,.F.);
#233=ORIENTED_EDGE('',*,*,#177,.T.);
#234=ORIENTED_EDGE('',*,*,#189,.F.);
#235=ORIENTED_EDGE('',*,*,#161,.T.);
#236=ORIENTED_EDGE('',*,*,#190,.T.);
#237=ORIENTED_EDGE('',*,*,#179,.T.);
#238=ORIENTED_EDGE('',*,*,#191,.F.);
#239=ORIENTED_EDGE('',*,*,#171,.T.);
#240=ORIENTED_EDGE('',*,*,#192,.T.);
#241=ORIENTED_EDGE('',*,*,#181,.T.);
#242=ORIENTED_EDGE('',*,*,#193,.F.);
#243=ORIENTED_EDGE('',*,*,#169,.T.);
#244=ORIENTED_EDGE('',*,*,#194,.T.);
#245=ORIENTED_EDGE('',*,*,#183,.T.);
#246=ORIENTED_EDGE('',*,*,#195,.F.);
#247=ORIENTED_EDGE('',*,*,#167,.T.);
#248=ORIENTED_EDGE('',*,*,#196,.T.);
#249=ORIENTED_EDGE('',*,*,#185,.T.);
#250=ORIENTED_EDGE('',*,*,#197,.F.);
#251=ORIENTED_EDGE('',*,*,#165,.T.);
#252=ORIENTED_EDGE('',*,*,#198,.T.);
#253=ORIENTED_EDGE('',*,*,#186,.F.);
#254=ORIENTED_EDGE('',*,*,#198,.F.);
#255=ORIENTED_EDGE('',*,*,#164,.T.);
#256=ORIENTED_EDGE('',*,*,#188,.T.);
#257=ORIENTED_EDGE('',*,*,#184,.F.);
#258=ORIENTED_EDGE('',*,*,#196,.F.);
#259=ORIENTED_EDGE('',*,*,#166,.T.);
#260=ORIENTED_EDGE('',*,*,#197,.T.);
#261=ORIENTED_EDGE('',*,*,#182,.F.);
#262=ORIENTED_EDGE('',*,*,#194,.F.);
#263=ORIENTED_EDGE('',*,*,#168,.T.);
#264=ORIENTED_EDGE('',*,*,#195,.T.);
#265=ORIENTED_EDGE('',*,*,#180,.F.);
#266=ORIENTED_EDGE('',*,*,#192,.F.);
#267=ORIENTED_EDGE('',*,*,#170,.T.);
#268=ORIENTED_EDGE('',*,*,#193,.T.);
#269=ORIENTED_EDGE('',*,*,#178,.F.);
#270=ORIENTED_EDGE('',*,*,#190,.F.);
#271=ORIENTED_EDGE('',*,*,#172,.T.);
#272=ORIENTED_EDGE('',*,*,#191,.T.);
#273=ORIENTED_EDGE('',*,*,#176,.F.);
#274=ORIENTED_EDGE('',*,*,#187,.F.);
#275=ORIENTED_EDGE('',*,*,#162,.T.);
#276=ORIENTED_EDGE('',*,*,#189,.T.);
#277=ORIENTED_EDGE('',*,*,#173,.T.);
#278=ORIENTED_EDGE('',*,*,#199,.F.);
#279=ORIENTED_EDGE('',*,*,#159,.F.);
#280=ORIENTED_EDGE('',*,*,#200,.T.);
#281=ORIENTED_EDGE('',*,*,#199,.T.);
#282=ORIENTED_EDGE('',*,*,#174,.T.);
#283=ORIENTED_EDGE('',*,*,#200,.F.);
#284=ORIENTED_EDGE('',*,*,#160,.F.);
#285=EDGE_LOOP('',(#201,#202));
#286=EDGE_LOOP('',(#203,#204,#205,#206,#207,#208,#209,#210,#211,#212,#213,
#214));
#287=EDGE_LOOP('',(#215,#216));
#288=EDGE_LOOP('',(#217,#218,#219,#220,#221,#222,#223,#224,#225,#226,#227,
#228));
#289=EDGE_LOOP('',(#229,#230,#231,#232));
#290=EDGE_LOOP('',(#233,#234,#235,#236));
#291=EDGE_LOOP('',(#237,#238,#239,#240));
#292=EDGE_LOOP('',(#241,#242,#243,#244));
#293=EDGE_LOOP('',(#245,#246,#247,#248));
#294=EDGE_LOOP('',(#249,#250,#251,#252));
#295=EDGE_LOOP('',(#253,#254,#255,#256));
#296=EDGE_LOOP('',(#257,#258,#259,#260));
#297=EDGE_LOOP('',(#261,#262,#263,#264));
#298=EDGE_LOOP('',(#265,#266,#267,#268));
#299=EDGE_LOOP('',(#269,#270,#271,#272));
#300=EDGE_LOOP('',(#273,#274,#275,#276));
#301=EDGE_LOOP('',(#277,#278,#279,#280));
#302=EDGE_LOOP('',(#281,#282,#283,#284));
#303=FACE_BOUND('',#285,.T.);
#304=FACE_BOUND('',#286,.T.);
#305=FACE_BOUND('',#287,.T.);
#306=FACE_BOUND('',#288,.T.);
#307=FACE_BOUND('',#289,.T.);
#308=FACE_BOUND('',#290,.T.);
#309=FACE_BOUND('',#291,.T.);
#310=FACE_BOUND('',#292,.T.);
#311=FACE_BOUND('',#293,.T.);
#312=FACE_BOUND('',#294,.T.);
#313=FACE_BOUND('',#295,.T.);
#314=FACE_BOUND('',#296,.T.);
#315=FACE_BOUND('',#297,.T.);
#316=FACE_BOUND('',#298,.T.);
#317=FACE_BOUND('',#299,.T.);
#318=FACE_BOUND('',#300,.T.);
#319=FACE_BOUND('',#301,.T.);
#320=FACE_BOUND('',#302,.T.);
#321=ADVANCED_FACE('',(#303,#304),#545,.T.);
#322=ADVANCED_FACE('',(#305,#306),#546,.T.);
#323=ADVANCED_FACE('',(#307),#55,.T.);
#324=ADVANCED_FACE('',(#308),#56,.T.);
#325=ADVANCED_FACE('',(#309),#57,.T.);
#326=ADVANCED_FACE('',(#310),#58,.T.);
#327=ADVANCED_FACE('',(#311),#59,.T.);
#328=ADVANCED_FACE('',(#312),#60,.T.);
#329=ADVANCED_FACE('',(#313),#547,.T.);
#330=ADVANCED_FACE('',(#314),#548,.T.);
#331=ADVANCED_FACE('',(#315),#549,.T.);
#332=ADVANCED_FACE('',(#316),#550,.T.);
#333=ADVANCED_FACE('',(#317),#551,.T.);
#334=ADVANCED_FACE('',(#318),#552,.T.);
#335=ADVANCED_FACE('',(#319),#61,.F.);
#336=ADVANCED_FACE('',(#320),#62,.F.);
#337=AXIS2_PLACEMENT_3D('',#457,#371,$);
#338=AXIS2_PLACEMENT_3D('',#458,#372,#373);
#339=AXIS2_PLACEMENT_3D('',#461,#374,#375);
#340=AXIS2_PLACEMENT_3D('',#462,#376,#377);
#341=AXIS2_PLACEMENT_3D('',#467,#379,#380);
#342=AXIS2_PLACEMENT_3D('',#471,#382,#383);
#343=AXIS2_PLACEMENT_3D('',#475,#385,#386);
#344=AXIS2_PLACEMENT_3D('',#479,#388,#389);
#345=AXIS2_PLACEMENT_3D('',#483,#391,#392);
#346=AXIS2_PLACEMENT_3D('',#486,#394,$);
#347=AXIS2_PLACEMENT_3D('',#487,#395,#396);
#348=AXIS2_PLACEMENT_3D('',#490,#397,#398);
#349=AXIS2_PLACEMENT_3D('',#491,#399,#400);
#350=AXIS2_PLACEMENT_3D('',#496,#402,#403);
#351=AXIS2_PLACEMENT_3D('',#500,#405,#406);
#352=AXIS2_PLACEMENT_3D('',#504,#408,#409);
#353=AXIS2_PLACEMENT_3D('',#508,#411,#412);
#354=AXIS2_PLACEMENT_3D('',#512,#414,#415);
#355=AXIS2_PLACEMENT_3D('',#515,#417,#418);
#356=AXIS2_PLACEMENT_3D('',#518,#421,#422);
#357=AXIS2_PLACEMENT_3D('',#521,#425,#426);
#358=AXIS2_PLACEMENT_3D('',#524,#429,#430);
#359=AXIS2_PLACEMENT_3D('',#527,#433,#434);
#360=AXIS2_PLACEMENT_3D('',#530,#437,#438);
#361=AXIS2_PLACEMENT_3D('',#533,#441,$);
#362=AXIS2_PLACEMENT_3D('',#534,#442,$);
#363=AXIS2_PLACEMENT_3D('',#535,#443,$);
#364=AXIS2_PLACEMENT_3D('',#536,#444,$);
#365=AXIS2_PLACEMENT_3D('',#537,#445,$);
#366=AXIS2_PLACEMENT_3D('',#538,#446,$);
#367=AXIS2_PLACEMENT_3D('',#539,#447,#448);
#368=AXIS2_PLACEMENT_3D('',#542,#451,#452);
#369=AXIS2_PLACEMENT_3D('AXIS_PLACEMENT_1',#543,#453,#454);
#370=AXIS2_PLACEMENT_3D('AXIS_PLACEMENT_5',#544,#455,#456);
#371=DIRECTION('',(1.,0.,0.));
#372=DIRECTION('',(-1.,0.,0.));
#373=DIRECTION('',(0.,0.,3.7295));
#374=DIRECTION('',(-1.,0.,0.));
#375=DIRECTION('',(0.,0.,3.7295));
#376=DIRECTION('',(-1.,0.,0.));
#377=DIRECTION('',(0.,0.,5.75));
#378=DIRECTION('',(0.,-0.500000000000002,-0.866025403784438));
#379=DIRECTION('',(-1.,0.,0.));
#380=DIRECTION('',(0.,0.,5.75));
#381=DIRECTION('',(0.,0.499999999999998,-0.86602540378444));
#382=DIRECTION('',(-1.,0.,0.));
#383=DIRECTION('',(0.,0.,5.75));
#384=DIRECTION('',(0.,1.,-3.44078897625687E-15));
#385=DIRECTION('',(-1.,0.,0.));
#386=DIRECTION('',(0.,0.,5.75));
#387=DIRECTION('',(0.,0.500000000000002,0.866025403784438));
#388=DIRECTION('',(-1.,0.,0.));
#389=DIRECTION('',(0.,0.,5.75));
#390=DIRECTION('',(0.,-0.499999999999998,0.86602540378444));
#391=DIRECTION('',(-1.,0.,0.));
#392=DIRECTION('',(0.,0.,5.75));
#393=DIRECTION('',(0.,-1.,3.44078897625687E-15));
#394=DIRECTION('',(-1.,0.,0.));
#395=DIRECTION('',(-1.,0.,0.));
#396=DIRECTION('',(0.,0.,3.7295));
#397=DIRECTION('',(-1.,0.,0.));
#398=DIRECTION('',(0.,0.,3.7295));
#399=DIRECTION('',(1.,0.,0.));
#400=DIRECTION('',(0.,0.,-5.75));
#401=DIRECTION('',(0.,-0.500000000000002,-0.866025403784438));
#402=DIRECTION('',(1.,0.,0.));
#403=DIRECTION('',(0.,0.,-5.75));
#404=DIRECTION('',(0.,-1.,3.44078897625687E-15));
#405=DIRECTION('',(1.,0.,0.));
#406=DIRECTION('',(0.,0.,-5.75));
#407=DIRECTION('',(0.,-0.499999999999998,0.86602540378444));
#408=DIRECTION('',(1.,0.,0.));
#409=DIRECTION('',(0.,0.,-5.75));
#410=DIRECTION('',(0.,0.500000000000002,0.866025403784438));
#411=DIRECTION('',(1.,0.,0.));
#412=DIRECTION('',(0.,0.,-5.75));
#413=DIRECTION('',(0.,1.,-3.44078897625687E-15));
#414=DIRECTION('',(1.,0.,0.));
#415=DIRECTION('',(0.,0.,-5.75));
#416=DIRECTION('',(0.,0.499999999999998,-0.86602540378444));
#417=DIRECTION('',(1.,0.,0.));
#418=DIRECTION('',(0.,0.,-5.75));
#419=DIRECTION('',(-1.,0.,0.));
#420=DIRECTION('',(-1.,0.,-2.90802735427385E-15));
#421=DIRECTION('',(1.,0.,0.));
#422=DIRECTION('',(0.,0.,-5.75));
#423=DIRECTION('',(-1.,0.,0.));
#424=DIRECTION('',(-1.,0.,0.));
#425=DIRECTION('',(1.,0.,0.));
#426=DIRECTION('',(0.,0.,-5.75));
#427=DIRECTION('',(-1.,-4.44089209850063E-15,0.));
#428=DIRECTION('',(-1.,0.,0.));
#429=DIRECTION('',(1.,0.,0.));
#430=DIRECTION('',(0.,0.,-5.75));
#431=DIRECTION('',(-1.,0.,3.13511842749263E-15));
#432=DIRECTION('',(-1.,0.,0.));
#433=DIRECTION('',(1.,0.,0.));
#434=DIRECTION('',(0.,0.,-5.75));
#435=DIRECTION('',(-1.,0.,0.));
#436=DIRECTION('',(-1.,0.,0.));
#437=DIRECTION('',(1.,0.,0.));
#438=DIRECTION('',(0.,0.,-5.75));
#439=DIRECTION('',(-1.,0.,0.));
#440=DIRECTION('',(-1.,0.,0.));
#441=DIRECTION('',(0.,0.866025403784439,0.499999999999999));
#442=DIRECTION('',(0.,1.77635683940025E-15,1.));
#443=DIRECTION('',(0.,-0.866025403784438,0.500000000000002));
#444=DIRECTION('',(0.,-0.86602540378444,-0.499999999999998));
#445=DIRECTION('',(0.,-2.16493489801906E-15,-1.));
#446=DIRECTION('',(0.,0.866025403784437,-0.500000000000002));
#447=DIRECTION('',(-1.,0.,0.));
#448=DIRECTION('',(0.,0.,3.7295));
#449=DIRECTION('',(-1.,0.,0.));
#450=DIRECTION('',(-1.,0.,0.));
#451=DIRECTION('',(-1.,0.,0.));
#452=DIRECTION('',(0.,0.,3.7295));
#453=DIRECTION('DIRECTION2',(1.,-1.83186799063151E-15,3.35574033510033E-30));
#454=DIRECTION('DIRECTION3',(4.90454462513686E-45,-1.83186799063151E-15,
-1.));
#455=DIRECTION('DIRECTION6',(0.,0.,1.));
#456=DIRECTION('DIRECTION7',(1.,0.,0.));
#457=CARTESIAN_POINT('',(2.2,0.,0.));
#458=CARTESIAN_POINT('',(2.2,2.16840434497101E-16,-1.35525271560688E-17));
#459=CARTESIAN_POINT('',(2.2,6.73572458239106E-16,-3.7295));
#460=CARTESIAN_POINT('',(2.2,-2.39891589244904E-16,3.7295));
#461=CARTESIAN_POINT('',(2.2,2.16840434497101E-16,-1.35525271560688E-17));
#462=CARTESIAN_POINT('',(2.2,0.,0.));
#463=CARTESIAN_POINT('',(2.2,2.91039993247211,-4.95903944661326));
#464=CARTESIAN_POINT('',(2.2,2.83945417290013,-5.00000000000001));
#465=CARTESIAN_POINT('',(2.2,5.74985410537226,-0.0409605533867609));
#466=CARTESIAN_POINT('',(2.2,5.74985410537226,-0.0409605533867605));
#467=CARTESIAN_POINT('',(2.2,0.,0.));
#468=CARTESIAN_POINT('',(2.2,5.74985410537226,0.0409605533867391));
#469=CARTESIAN_POINT('',(2.2,2.91039993247213,4.95903944661325));
#470=CARTESIAN_POINT('',(2.2,2.91039993247213,4.95903944661325));
#471=CARTESIAN_POINT('',(2.2,0.,0.));
#472=CARTESIAN_POINT('',(2.2,2.83945417290015,4.99999999999999));
#473=CARTESIAN_POINT('',(2.2,-2.83945417290013,5.00000000000001));
#474=CARTESIAN_POINT('',(2.2,-2.83945417290013,5.00000000000001));
#475=CARTESIAN_POINT('',(2.2,0.,0.));
#476=CARTESIAN_POINT('',(2.2,-2.91039993247211,4.95903944661326));
#477=CARTESIAN_POINT('',(2.2,-5.74985410537226,0.0409605533867583));
#478=CARTESIAN_POINT('',(2.2,-5.74985410537226,0.0409605533867595));
#479=CARTESIAN_POINT('',(2.2,0.,0.));
#480=CARTESIAN_POINT('',(2.2,-5.74985410537226,-0.0409605533867379));
#481=CARTESIAN_POINT('',(2.2,-2.91039993247213,-4.95903944661325));
#482=CARTESIAN_POINT('',(2.2,-2.91039993247213,-4.95903944661325));
#483=CARTESIAN_POINT('',(2.2,0.,0.));
#484=CARTESIAN_POINT('',(2.2,-2.83945417290015,-4.99999999999999));
#485=CARTESIAN_POINT('',(2.2,2.83945417290013,-5.00000000000001));
#486=CARTESIAN_POINT('',(0.,0.,0.));
#487=CARTESIAN_POINT('',(0.,2.16840434497101E-16,-1.35525271560688E-17));
#488=CARTESIAN_POINT('',(0.,6.73572458239106E-16,-3.7295));
#489=CARTESIAN_POINT('',(0.,-2.39891589244904E-16,3.7295));
#490=CARTESIAN_POINT('',(0.,2.16840434497101E-16,-1.35525271560688E-17));
#491=CARTESIAN_POINT('',(0.,0.,0.));
#492=CARTESIAN_POINT('',(0.,5.74985410537226,-0.040960553386761));
#493=CARTESIAN_POINT('',(0.,5.74985410537226,0.0409605533867342));
#494=CARTESIAN_POINT('',(0.,5.74985410537226,-0.0409605533867609));
#495=CARTESIAN_POINT('',(0.,2.91039993247211,-4.95903944661326));
#496=CARTESIAN_POINT('',(0.,0.,0.));
#497=CARTESIAN_POINT('',(0.,2.83945417290013,-5.00000000000001));
#498=CARTESIAN_POINT('',(0.,2.83945417290013,-5.00000000000001));
#499=CARTESIAN_POINT('',(0.,-2.83945417290016,-4.99999999999999));
#500=CARTESIAN_POINT('',(0.,0.,0.));
#501=CARTESIAN_POINT('',(0.,-2.91039993247213,-4.95903944661325));
#502=CARTESIAN_POINT('',(0.,-2.91039993247213,-4.95903944661325));
#503=CARTESIAN_POINT('',(0.,-5.74985410537226,-0.0409605533867304));
#504=CARTESIAN_POINT('',(0.,0.,0.));
#505=CARTESIAN_POINT('',(0.,-5.74985410537226,0.0409605533867595));
#506=CARTESIAN_POINT('',(0.,-5.74985410537226,0.0409605533867583));
#507=CARTESIAN_POINT('',(0.,-2.91039993247211,4.95903944661326));
#508=CARTESIAN_POINT('',(0.,0.,0.));
#509=CARTESIAN_POINT('',(0.,-2.83945417290013,5.00000000000001));
#510=CARTESIAN_POINT('',(0.,-2.83945417290013,5.00000000000001));
#511=CARTESIAN_POINT('',(0.,2.83945417290015,4.99999999999999));
#512=CARTESIAN_POINT('',(0.,0.,0.));
#513=CARTESIAN_POINT('',(0.,2.91039993247213,4.95903944661325));
#514=CARTESIAN_POINT('',(0.,2.91039993247213,4.95903944661325));
#515=CARTESIAN_POINT('',(0.,0.,0.));
#516=CARTESIAN_POINT('',(2.2,5.74985410537226,-0.0409605533867609));
#517=CARTESIAN_POINT('',(2.2,5.74985410537226,0.0409605533867388));
#518=CARTESIAN_POINT('',(0.,0.,0.));
#519=CARTESIAN_POINT('',(2.2,2.91039993247211,-4.95903944661326));
#520=CARTESIAN_POINT('',(2.2,2.83945417290013,-5.00000000000001));
#521=CARTESIAN_POINT('',(0.,0.,0.));
#522=CARTESIAN_POINT('',(2.2,-2.83945417290015,-4.99999999999999));
#523=CARTESIAN_POINT('',(2.2,-2.91039993247213,-4.95903944661325));
#524=CARTESIAN_POINT('',(0.,0.,0.));
#525=CARTESIAN_POINT('',(2.2,-5.74985410537226,-0.0409605533867371));
#526=CARTESIAN_POINT('',(2.2,-5.74985410537226,0.0409605533867583));
#527=CARTESIAN_POINT('',(0.,0.,0.));
#528=CARTESIAN_POINT('',(2.2,-2.91039993247211,4.95903944661326));
#529=CARTESIAN_POINT('',(2.2,-2.83945417290013,5.00000000000001));
#530=CARTESIAN_POINT('',(0.,0.,0.));
#531=CARTESIAN_POINT('',(2.2,2.83945417290015,4.99999999999999));
#532=CARTESIAN_POINT('',(2.2,2.91039993247213,4.95903944661325));
#533=CARTESIAN_POINT('',(2.2,2.91039993247213,4.95903944661325));
#534=CARTESIAN_POINT('',(2.2,-2.83945417290013,5.));
#535=CARTESIAN_POINT('',(2.2,-5.74985410537226,0.0409605533867592));
#536=CARTESIAN_POINT('',(2.2,-2.91039993247213,-4.95903944661325));
#537=CARTESIAN_POINT('',(2.2,2.83945417290013,-5.00000000000001));
#538=CARTESIAN_POINT('',(2.2,5.74985410537226,-0.0409605533867614));
#539=CARTESIAN_POINT('',(2.2,2.16840434497101E-16,-1.35525271560688E-17));
#540=CARTESIAN_POINT('',(2.2,2.16840434497101E-16,3.7295));
#541=CARTESIAN_POINT('',(2.2,6.73572458239106E-16,-3.7295));
#542=CARTESIAN_POINT('',(2.2,2.16840434497101E-16,-1.35525271560688E-17));
#543=CARTESIAN_POINT('CARTESIAN_POINT4',(-2.8,1.32116539930394E-14,7.2));
#544=CARTESIAN_POINT('CARTESIAN_POINT8',(0.,0.,0.));
#545=PLANE('',#337);
#546=PLANE('',#346);
#547=PLANE('',#361);
#548=PLANE('',#362);
#549=PLANE('',#363);
#550=PLANE('',#364);
#551=PLANE('',#365);
#552=PLANE('',#366);
#553=CLOSED_SHELL('',(#321,#322,#323,#324,#325,#326,#327,#328,#329,#330,
#331,#332,#333,#334,#335,#336));
#554=MANIFOLD_SOLID_BREP('',#553);
#555=ADVANCED_BREP_SHAPE_REPRESENTATION(
'5307-2 Flat nut - SACC-E-MU-M 8 - 1504071',(#554),#53);
ENDSEC;
END-ISO-10303-21;
