ISO-10303-21;
HEADER;
/* Generated by software containing ST-Developer
 * from STEP Tools, Inc. (www.steptools.com) 
 */

FILE_DESCRIPTION(
/* description */ ('Alibre Inc.'),
/* implementation_level */ '2;1');

FILE_NAME(
/* name */ 'export-73DA9ECA-4997-4B94-9C05-7D5670E8D1D9',
/* time_stamp */ '2020-12-21T15:01:02+01:00',
/* author */ (''),
/* organization */ (''),
/* preprocessor_version */ 'ST-DEVELOPER v17',
/* originating_system */ 'Alibre',
/* authorisation */ '');

FILE_SCHEMA (('AUTOMOTIVE_DESIGN'));
ENDSEC;

DATA;
#10=STYLED_ITEM('NAME_0',(#18),#469);
#11=MECHANICAL_DESIGN_GEOMETRIC_PRESENTATION_REPRESENTATION('NAME_0',(#10),
#33);
#12=COLOUR_RGB('',0.,0.,0.);
#13=FILL_AREA_STYLE_COLOUR('NAME_0',#12);
#14=FILL_AREA_STYLE('NAME_0',(#13));
#15=SURFACE_STYLE_FILL_AREA(#14);
#16=SURFACE_SIDE_STYLE('NAME_0',(#15));
#17=SURFACE_STYLE_USAGE(.POSITIVE.,#16);
#18=PRESENTATION_STYLE_ASSIGNMENT((#17));
#19=PRODUCT_DEFINITION_CONTEXT('part definition',#26,'design');
#20=SHAPE_DEFINITION_REPRESENTATION(#21,#470);
#21=PRODUCT_DEFINITION_SHAPE('PRODUCT_VERSION_ID',
'PRODUCT_VERSION_DESCR',#22);
#22=PRODUCT_DEFINITION('PRODUCT_VERSION_ID','PRODUCT_VERSION_DESCR',#23,
#19);
#23=PRODUCT_DEFINITION_FORMATION_WITH_SPECIFIED_SOURCE(
'PRODUCT_VERSION_ID','PRODUCT_VERSION_DESCR',#28,.MADE.);
#24=PRODUCT_RELATED_PRODUCT_CATEGORY('part','part',(#28));
#25=APPLICATION_PROTOCOL_DEFINITION('Draft International Standard',
'automotive_design',1994,#26);
#26=APPLICATION_CONTEXT('automotive_Design');
#27=PRODUCT_CONTEXT('3D Mechanical Parts',#26,'mechanical');
#28=PRODUCT('','5382 HDPE coverplate 128x72x20mm, for W1580300200','',(#27));
#29=(
LENGTH_UNIT()
NAMED_UNIT(*)
SI_UNIT(.MILLI.,.METRE.)
);
#30=(
NAMED_UNIT(*)
PLANE_ANGLE_UNIT()
SI_UNIT($,.RADIAN.)
);
#31=(
NAMED_UNIT(*)
SI_UNIT($,.STERADIAN.)
SOLID_ANGLE_UNIT()
);
#32=UNCERTAINTY_MEASURE_WITH_UNIT(LENGTH_MEASURE(1.E-6),#29,
'DISTANCE_ACCURACY_VALUE',
'Maximum model space distance between geometric entities at asserted c
onnectivities');
#33=(
GEOMETRIC_REPRESENTATION_CONTEXT(3)
GLOBAL_UNCERTAINTY_ASSIGNED_CONTEXT((#32))
GLOBAL_UNIT_ASSIGNED_CONTEXT((#31,#30,#29))
REPRESENTATION_CONTEXT('ID1','3D')
);
#34=VECTOR('',#373,1.);
#35=VECTOR('',#374,1.);
#36=VECTOR('',#375,1.);
#37=VECTOR('',#376,1.);
#38=VECTOR('',#378,1.);
#39=VECTOR('',#379,1.);
#40=VECTOR('',#380,1.);
#41=VECTOR('',#382,1.);
#42=VECTOR('',#383,1.);
#43=VECTOR('',#384,1.);
#44=VECTOR('',#386,1.);
#45=VECTOR('',#387,1.);
#46=LINE('',#435,#34);
#47=LINE('',#438,#35);
#48=LINE('',#440,#36);
#49=LINE('',#442,#37);
#50=LINE('',#444,#38);
#51=LINE('',#446,#39);
#52=LINE('',#448,#40);
#53=LINE('',#450,#41);
#54=LINE('',#452,#42);
#55=LINE('',#454,#43);
#56=LINE('',#456,#44);
#57=LINE('',#457,#45);
#58=PLANE('',#289);
#59=PLANE('',#296);
#60=PLANE('',#303);
#61=PLANE('',#310);
#62=PLANE('',#314);
#63=PLANE('',#315);
#64=PLANE('',#316);
#65=PLANE('',#317);
#66=PLANE('',#318);
#67=PLANE('',#319);
#68=VERTEX_POINT('',#392);
#69=VERTEX_POINT('',#394);
#70=VERTEX_POINT('',#397);
#71=VERTEX_POINT('',#400);
#72=VERTEX_POINT('',#403);
#73=VERTEX_POINT('',#405);
#74=VERTEX_POINT('',#408);
#75=VERTEX_POINT('',#411);
#76=VERTEX_POINT('',#414);
#77=VERTEX_POINT('',#416);
#78=VERTEX_POINT('',#419);
#79=VERTEX_POINT('',#422);
#80=VERTEX_POINT('',#425);
#81=VERTEX_POINT('',#427);
#82=VERTEX_POINT('',#430);
#83=VERTEX_POINT('',#433);
#84=VERTEX_POINT('',#436);
#85=VERTEX_POINT('',#437);
#86=VERTEX_POINT('',#439);
#87=VERTEX_POINT('',#441);
#88=VERTEX_POINT('',#445);
#89=VERTEX_POINT('',#447);
#90=VERTEX_POINT('',#451);
#91=VERTEX_POINT('',#453);
#92=CIRCLE('',#287,7.5);
#93=CIRCLE('',#288,7.5);
#94=CIRCLE('',#290,4.5);
#95=CIRCLE('',#292,4.5);
#96=CIRCLE('',#294,7.5);
#97=CIRCLE('',#295,7.5);
#98=CIRCLE('',#297,4.5);
#99=CIRCLE('',#299,4.5);
#100=CIRCLE('',#301,7.5);
#101=CIRCLE('',#302,7.5);
#102=CIRCLE('',#304,4.5);
#103=CIRCLE('',#306,4.5);
#104=CIRCLE('',#308,7.5);
#105=CIRCLE('',#309,7.5);
#106=CIRCLE('',#311,4.5);
#107=CIRCLE('',#313,4.5);
#108=EDGE_CURVE('',#68,#68,#92,.T.);
#109=EDGE_CURVE('',#69,#69,#93,.T.);
#110=EDGE_CURVE('',#70,#70,#94,.T.);
#111=EDGE_CURVE('',#71,#71,#95,.T.);
#112=EDGE_CURVE('',#72,#72,#96,.T.);
#113=EDGE_CURVE('',#73,#73,#97,.T.);
#114=EDGE_CURVE('',#74,#74,#98,.T.);
#115=EDGE_CURVE('',#75,#75,#99,.T.);
#116=EDGE_CURVE('',#76,#76,#100,.T.);
#117=EDGE_CURVE('',#77,#77,#101,.T.);
#118=EDGE_CURVE('',#78,#78,#102,.T.);
#119=EDGE_CURVE('',#79,#79,#103,.T.);
#120=EDGE_CURVE('',#80,#80,#104,.T.);
#121=EDGE_CURVE('',#81,#81,#105,.T.);
#122=EDGE_CURVE('',#82,#82,#106,.T.);
#123=EDGE_CURVE('',#83,#83,#107,.T.);
#124=EDGE_CURVE('',#84,#85,#46,.T.);
#125=EDGE_CURVE('',#86,#85,#47,.T.);
#126=EDGE_CURVE('',#86,#87,#48,.T.);
#127=EDGE_CURVE('',#87,#84,#49,.T.);
#128=EDGE_CURVE('',#85,#88,#50,.T.);
#129=EDGE_CURVE('',#89,#88,#51,.T.);
#130=EDGE_CURVE('',#89,#86,#52,.T.);
#131=EDGE_CURVE('',#88,#90,#53,.T.);
#132=EDGE_CURVE('',#91,#90,#54,.T.);
#133=EDGE_CURVE('',#91,#89,#55,.T.);
#134=EDGE_CURVE('',#90,#84,#56,.T.);
#135=EDGE_CURVE('',#87,#91,#57,.T.);
#136=ORIENTED_EDGE('',*,*,#108,.F.);
#137=ORIENTED_EDGE('',*,*,#109,.F.);
#138=ORIENTED_EDGE('',*,*,#110,.F.);
#139=ORIENTED_EDGE('',*,*,#108,.T.);
#140=ORIENTED_EDGE('',*,*,#110,.T.);
#141=ORIENTED_EDGE('',*,*,#111,.F.);
#142=ORIENTED_EDGE('',*,*,#112,.F.);
#143=ORIENTED_EDGE('',*,*,#113,.F.);
#144=ORIENTED_EDGE('',*,*,#114,.F.);
#145=ORIENTED_EDGE('',*,*,#112,.T.);
#146=ORIENTED_EDGE('',*,*,#114,.T.);
#147=ORIENTED_EDGE('',*,*,#115,.F.);
#148=ORIENTED_EDGE('',*,*,#116,.F.);
#149=ORIENTED_EDGE('',*,*,#117,.F.);
#150=ORIENTED_EDGE('',*,*,#118,.F.);
#151=ORIENTED_EDGE('',*,*,#116,.T.);
#152=ORIENTED_EDGE('',*,*,#118,.T.);
#153=ORIENTED_EDGE('',*,*,#119,.F.);
#154=ORIENTED_EDGE('',*,*,#120,.F.);
#155=ORIENTED_EDGE('',*,*,#121,.F.);
#156=ORIENTED_EDGE('',*,*,#122,.F.);
#157=ORIENTED_EDGE('',*,*,#120,.T.);
#158=ORIENTED_EDGE('',*,*,#122,.T.);
#159=ORIENTED_EDGE('',*,*,#123,.F.);
#160=ORIENTED_EDGE('',*,*,#124,.T.);
#161=ORIENTED_EDGE('',*,*,#125,.F.);
#162=ORIENTED_EDGE('',*,*,#126,.T.);
#163=ORIENTED_EDGE('',*,*,#127,.T.);
#164=ORIENTED_EDGE('',*,*,#128,.T.);
#165=ORIENTED_EDGE('',*,*,#129,.F.);
#166=ORIENTED_EDGE('',*,*,#130,.T.);
#167=ORIENTED_EDGE('',*,*,#125,.T.);
#168=ORIENTED_EDGE('',*,*,#131,.T.);
#169=ORIENTED_EDGE('',*,*,#132,.F.);
#170=ORIENTED_EDGE('',*,*,#133,.T.);
#171=ORIENTED_EDGE('',*,*,#129,.T.);
#172=ORIENTED_EDGE('',*,*,#134,.T.);
#173=ORIENTED_EDGE('',*,*,#127,.F.);
#174=ORIENTED_EDGE('',*,*,#135,.T.);
#175=ORIENTED_EDGE('',*,*,#132,.T.);
#176=ORIENTED_EDGE('',*,*,#109,.T.);
#177=ORIENTED_EDGE('',*,*,#113,.T.);
#178=ORIENTED_EDGE('',*,*,#117,.T.);
#179=ORIENTED_EDGE('',*,*,#121,.T.);
#180=ORIENTED_EDGE('',*,*,#124,.F.);
#181=ORIENTED_EDGE('',*,*,#134,.F.);
#182=ORIENTED_EDGE('',*,*,#131,.F.);
#183=ORIENTED_EDGE('',*,*,#128,.F.);
#184=ORIENTED_EDGE('',*,*,#111,.T.);
#185=ORIENTED_EDGE('',*,*,#115,.T.);
#186=ORIENTED_EDGE('',*,*,#119,.T.);
#187=ORIENTED_EDGE('',*,*,#123,.T.);
#188=ORIENTED_EDGE('',*,*,#135,.F.);
#189=ORIENTED_EDGE('',*,*,#126,.F.);
#190=ORIENTED_EDGE('',*,*,#130,.F.);
#191=ORIENTED_EDGE('',*,*,#133,.F.);
#192=EDGE_LOOP('',(#136));
#193=EDGE_LOOP('',(#137));
#194=EDGE_LOOP('',(#138));
#195=EDGE_LOOP('',(#139));
#196=EDGE_LOOP('',(#140));
#197=EDGE_LOOP('',(#141));
#198=EDGE_LOOP('',(#142));
#199=EDGE_LOOP('',(#143));
#200=EDGE_LOOP('',(#144));
#201=EDGE_LOOP('',(#145));
#202=EDGE_LOOP('',(#146));
#203=EDGE_LOOP('',(#147));
#204=EDGE_LOOP('',(#148));
#205=EDGE_LOOP('',(#149));
#206=EDGE_LOOP('',(#150));
#207=EDGE_LOOP('',(#151));
#208=EDGE_LOOP('',(#152));
#209=EDGE_LOOP('',(#153));
#210=EDGE_LOOP('',(#154));
#211=EDGE_LOOP('',(#155));
#212=EDGE_LOOP('',(#156));
#213=EDGE_LOOP('',(#157));
#214=EDGE_LOOP('',(#158));
#215=EDGE_LOOP('',(#159));
#216=EDGE_LOOP('',(#160,#161,#162,#163));
#217=EDGE_LOOP('',(#164,#165,#166,#167));
#218=EDGE_LOOP('',(#168,#169,#170,#171));
#219=EDGE_LOOP('',(#172,#173,#174,#175));
#220=EDGE_LOOP('',(#176));
#221=EDGE_LOOP('',(#177));
#222=EDGE_LOOP('',(#178));
#223=EDGE_LOOP('',(#179));
#224=EDGE_LOOP('',(#180,#181,#182,#183));
#225=EDGE_LOOP('',(#184));
#226=EDGE_LOOP('',(#185));
#227=EDGE_LOOP('',(#186));
#228=EDGE_LOOP('',(#187));
#229=EDGE_LOOP('',(#188,#189,#190,#191));
#230=FACE_BOUND('',#192,.T.);
#231=FACE_BOUND('',#193,.T.);
#232=FACE_BOUND('',#194,.T.);
#233=FACE_BOUND('',#195,.T.);
#234=FACE_BOUND('',#196,.T.);
#235=FACE_BOUND('',#197,.T.);
#236=FACE_BOUND('',#198,.T.);
#237=FACE_BOUND('',#199,.T.);
#238=FACE_BOUND('',#200,.T.);
#239=FACE_BOUND('',#201,.T.);
#240=FACE_BOUND('',#202,.T.);
#241=FACE_BOUND('',#203,.T.);
#242=FACE_BOUND('',#204,.T.);
#243=FACE_BOUND('',#205,.T.);
#244=FACE_BOUND('',#206,.T.);
#245=FACE_BOUND('',#207,.T.);
#246=FACE_BOUND('',#208,.T.);
#247=FACE_BOUND('',#209,.T.);
#248=FACE_BOUND('',#210,.T.);
#249=FACE_BOUND('',#211,.T.);
#250=FACE_BOUND('',#212,.T.);
#251=FACE_BOUND('',#213,.T.);
#252=FACE_BOUND('',#214,.T.);
#253=FACE_BOUND('',#215,.T.);
#254=FACE_BOUND('',#216,.T.);
#255=FACE_BOUND('',#217,.T.);
#256=FACE_BOUND('',#218,.T.);
#257=FACE_BOUND('',#219,.T.);
#258=FACE_BOUND('',#220,.T.);
#259=FACE_BOUND('',#221,.T.);
#260=FACE_BOUND('',#222,.T.);
#261=FACE_BOUND('',#223,.T.);
#262=FACE_BOUND('',#224,.T.);
#263=FACE_BOUND('',#225,.T.);
#264=FACE_BOUND('',#226,.T.);
#265=FACE_BOUND('',#227,.T.);
#266=FACE_BOUND('',#228,.T.);
#267=FACE_BOUND('',#229,.T.);
#268=ADVANCED_FACE('',(#230,#231),#460,.F.);
#269=ADVANCED_FACE('',(#232,#233),#58,.F.);
#270=ADVANCED_FACE('',(#234,#235),#461,.F.);
#271=ADVANCED_FACE('',(#236,#237),#462,.F.);
#272=ADVANCED_FACE('',(#238,#239),#59,.F.);
#273=ADVANCED_FACE('',(#240,#241),#463,.F.);
#274=ADVANCED_FACE('',(#242,#243),#464,.F.);
#275=ADVANCED_FACE('',(#244,#245),#60,.F.);
#276=ADVANCED_FACE('',(#246,#247),#465,.F.);
#277=ADVANCED_FACE('',(#248,#249),#466,.F.);
#278=ADVANCED_FACE('',(#250,#251),#61,.F.);
#279=ADVANCED_FACE('',(#252,#253),#467,.F.);
#280=ADVANCED_FACE('',(#254),#62,.T.);
#281=ADVANCED_FACE('',(#255),#63,.T.);
#282=ADVANCED_FACE('',(#256),#64,.T.);
#283=ADVANCED_FACE('',(#257),#65,.T.);
#284=ADVANCED_FACE('',(#258,#259,#260,#261,#262),#66,.T.);
#285=ADVANCED_FACE('',(#263,#264,#265,#266,#267),#67,.F.);
#286=AXIS2_PLACEMENT_3D('',#390,#320,#321);
#287=AXIS2_PLACEMENT_3D('',#391,#322,#323);
#288=AXIS2_PLACEMENT_3D('',#393,#324,#325);
#289=AXIS2_PLACEMENT_3D('',#395,#326,$);
#290=AXIS2_PLACEMENT_3D('',#396,#327,#328);
#291=AXIS2_PLACEMENT_3D('',#398,#329,#330);
#292=AXIS2_PLACEMENT_3D('',#399,#331,#332);
#293=AXIS2_PLACEMENT_3D('',#401,#333,#334);
#294=AXIS2_PLACEMENT_3D('',#402,#335,#336);
#295=AXIS2_PLACEMENT_3D('',#404,#337,#338);
#296=AXIS2_PLACEMENT_3D('',#406,#339,$);
#297=AXIS2_PLACEMENT_3D('',#407,#340,#341);
#298=AXIS2_PLACEMENT_3D('',#409,#342,#343);
#299=AXIS2_PLACEMENT_3D('',#410,#344,#345);
#300=AXIS2_PLACEMENT_3D('',#412,#346,#347);
#301=AXIS2_PLACEMENT_3D('',#413,#348,#349);
#302=AXIS2_PLACEMENT_3D('',#415,#350,#351);
#303=AXIS2_PLACEMENT_3D('',#417,#352,$);
#304=AXIS2_PLACEMENT_3D('',#418,#353,#354);
#305=AXIS2_PLACEMENT_3D('',#420,#355,#356);
#306=AXIS2_PLACEMENT_3D('',#421,#357,#358);
#307=AXIS2_PLACEMENT_3D('',#423,#359,#360);
#308=AXIS2_PLACEMENT_3D('',#424,#361,#362);
#309=AXIS2_PLACEMENT_3D('',#426,#363,#364);
#310=AXIS2_PLACEMENT_3D('',#428,#365,$);
#311=AXIS2_PLACEMENT_3D('',#429,#366,#367);
#312=AXIS2_PLACEMENT_3D('',#431,#368,#369);
#313=AXIS2_PLACEMENT_3D('',#432,#370,#371);
#314=AXIS2_PLACEMENT_3D('',#434,#372,$);
#315=AXIS2_PLACEMENT_3D('',#443,#377,$);
#316=AXIS2_PLACEMENT_3D('',#449,#381,$);
#317=AXIS2_PLACEMENT_3D('',#455,#385,$);
#318=AXIS2_PLACEMENT_3D('',#458,#388,$);
#319=AXIS2_PLACEMENT_3D('',#459,#389,$);
#320=DIRECTION('',(0.,-1.,0.));
#321=DIRECTION('',(7.5,0.,0.));
#322=DIRECTION('',(0.,1.,0.));
#323=DIRECTION('',(7.5,0.,0.));
#324=DIRECTION('',(0.,-1.,0.));
#325=DIRECTION('',(7.5,0.,0.));
#326=DIRECTION('',(0.,-1.,0.));
#327=DIRECTION('',(0.,1.,0.));
#328=DIRECTION('',(4.5,0.,0.));
#329=DIRECTION('',(0.,-1.,0.));
#330=DIRECTION('',(4.5,0.,0.));
#331=DIRECTION('',(0.,1.,0.));
#332=DIRECTION('',(4.5,0.,0.));
#333=DIRECTION('',(0.,-1.,0.));
#334=DIRECTION('',(7.5,0.,0.));
#335=DIRECTION('',(0.,1.,0.));
#336=DIRECTION('',(7.5,0.,0.));
#337=DIRECTION('',(0.,-1.,0.));
#338=DIRECTION('',(7.5,0.,0.));
#339=DIRECTION('',(0.,-1.,0.));
#340=DIRECTION('',(0.,1.,0.));
#341=DIRECTION('',(4.5,0.,0.));
#342=DIRECTION('',(0.,-1.,0.));
#343=DIRECTION('',(4.5,0.,0.));
#344=DIRECTION('',(0.,1.,0.));
#345=DIRECTION('',(4.5,0.,0.));
#346=DIRECTION('',(0.,-1.,0.));
#347=DIRECTION('',(7.5,0.,0.));
#348=DIRECTION('',(0.,1.,0.));
#349=DIRECTION('',(7.5,0.,0.));
#350=DIRECTION('',(0.,-1.,0.));
#351=DIRECTION('',(7.5,0.,0.));
#352=DIRECTION('',(0.,-1.,0.));
#353=DIRECTION('',(0.,1.,0.));
#354=DIRECTION('',(4.5,0.,0.));
#355=DIRECTION('',(0.,-1.,0.));
#356=DIRECTION('',(4.5,0.,0.));
#357=DIRECTION('',(0.,1.,0.));
#358=DIRECTION('',(4.5,0.,0.));
#359=DIRECTION('',(0.,-1.,0.));
#360=DIRECTION('',(7.5,0.,0.));
#361=DIRECTION('',(0.,1.,0.));
#362=DIRECTION('',(7.5,0.,0.));
#363=DIRECTION('',(0.,-1.,0.));
#364=DIRECTION('',(7.5,0.,0.));
#365=DIRECTION('',(0.,-1.,0.));
#366=DIRECTION('',(0.,1.,0.));
#367=DIRECTION('',(4.5,0.,0.));
#368=DIRECTION('',(0.,-1.,0.));
#369=DIRECTION('',(4.5,0.,0.));
#370=DIRECTION('',(0.,1.,0.));
#371=DIRECTION('',(4.5,0.,0.));
#372=DIRECTION('',(0.,0.,-1.));
#373=DIRECTION('',(1.,0.,0.));
#374=DIRECTION('',(0.,1.,0.));
#375=DIRECTION('',(-1.,0.,0.));
#376=DIRECTION('',(0.,1.,0.));
#377=DIRECTION('',(1.,0.,0.));
#378=DIRECTION('',(0.,0.,1.));
#379=DIRECTION('',(0.,1.,0.));
#380=DIRECTION('',(0.,0.,-1.));
#381=DIRECTION('',(0.,0.,1.));
#382=DIRECTION('',(-1.,0.,0.));
#383=DIRECTION('',(0.,1.,0.));
#384=DIRECTION('',(1.,0.,0.));
#385=DIRECTION('',(-1.,0.,0.));
#386=DIRECTION('',(0.,0.,-1.));
#387=DIRECTION('',(0.,0.,1.));
#388=DIRECTION('',(0.,1.,0.));
#389=DIRECTION('',(0.,1.,0.));
#390=CARTESIAN_POINT('',(51.,20.,-22.));
#391=CARTESIAN_POINT('',(51.,9.,-22.));
#392=CARTESIAN_POINT('',(58.5,9.,-22.));
#393=CARTESIAN_POINT('',(51.,20.,-22.));
#394=CARTESIAN_POINT('',(58.5,20.,-22.));
#395=CARTESIAN_POINT('',(51.,9.,-22.));
#396=CARTESIAN_POINT('',(51.,9.,-22.));
#397=CARTESIAN_POINT('',(46.5,9.,-22.));
#398=CARTESIAN_POINT('',(51.,20.,-22.));
#399=CARTESIAN_POINT('',(51.,0.,-22.));
#400=CARTESIAN_POINT('',(55.5,0.,-22.));
#401=CARTESIAN_POINT('',(51.,20.,22.));
#402=CARTESIAN_POINT('',(51.,9.,22.));
#403=CARTESIAN_POINT('',(58.5,9.,22.));
#404=CARTESIAN_POINT('',(51.,20.,22.));
#405=CARTESIAN_POINT('',(58.5,20.,22.));
#406=CARTESIAN_POINT('',(51.,9.,22.));
#407=CARTESIAN_POINT('',(51.,9.,22.));
#408=CARTESIAN_POINT('',(46.5,9.,22.));
#409=CARTESIAN_POINT('',(51.,20.,22.));
#410=CARTESIAN_POINT('',(51.,0.,22.));
#411=CARTESIAN_POINT('',(55.5,0.,22.));
#412=CARTESIAN_POINT('',(-51.,20.,22.));
#413=CARTESIAN_POINT('',(-51.,9.,22.));
#414=CARTESIAN_POINT('',(-43.5,9.,22.));
#415=CARTESIAN_POINT('',(-51.,20.,22.));
#416=CARTESIAN_POINT('',(-43.5,20.,22.));
#417=CARTESIAN_POINT('',(-51.,9.,22.));
#418=CARTESIAN_POINT('',(-51.,9.,22.));
#419=CARTESIAN_POINT('',(-55.5,9.,22.));
#420=CARTESIAN_POINT('',(-51.,20.,22.));
#421=CARTESIAN_POINT('',(-51.,0.,22.));
#422=CARTESIAN_POINT('',(-46.5,0.,22.));
#423=CARTESIAN_POINT('',(-51.,20.,-22.));
#424=CARTESIAN_POINT('',(-51.,9.,-22.));
#425=CARTESIAN_POINT('',(-43.5,9.,-22.));
#426=CARTESIAN_POINT('',(-51.,20.,-22.));
#427=CARTESIAN_POINT('',(-43.5,20.,-22.));
#428=CARTESIAN_POINT('',(-51.,9.,-22.));
#429=CARTESIAN_POINT('',(-51.,9.,-22.));
#430=CARTESIAN_POINT('',(-55.5,9.,-22.));
#431=CARTESIAN_POINT('',(-51.,20.,-22.));
#432=CARTESIAN_POINT('',(-51.,0.,-22.));
#433=CARTESIAN_POINT('',(-46.5,0.,-22.));
#434=CARTESIAN_POINT('',(0.,0.,-36.));
#435=CARTESIAN_POINT('',(64.,20.,-36.));
#436=CARTESIAN_POINT('',(-64.,20.,-36.));
#437=CARTESIAN_POINT('',(64.,20.,-36.));
#438=CARTESIAN_POINT('',(64.,0.,-36.));
#439=CARTESIAN_POINT('',(64.,0.,-36.));
#440=CARTESIAN_POINT('',(64.,0.,-36.));
#441=CARTESIAN_POINT('',(-64.,0.,-36.));
#442=CARTESIAN_POINT('',(-64.,0.,-36.));
#443=CARTESIAN_POINT('',(64.,0.,0.));
#444=CARTESIAN_POINT('',(64.,20.,36.));
#445=CARTESIAN_POINT('',(64.,20.,36.));
#446=CARTESIAN_POINT('',(64.,0.,36.));
#447=CARTESIAN_POINT('',(64.,0.,36.));
#448=CARTESIAN_POINT('',(64.,0.,36.));
#449=CARTESIAN_POINT('',(0.,0.,36.));
#450=CARTESIAN_POINT('',(-64.,20.,36.));
#451=CARTESIAN_POINT('',(-64.,20.,36.));
#452=CARTESIAN_POINT('',(-64.,0.,36.));
#453=CARTESIAN_POINT('',(-64.,0.,36.));
#454=CARTESIAN_POINT('',(-64.,0.,36.));
#455=CARTESIAN_POINT('',(-64.,0.,0.));
#456=CARTESIAN_POINT('',(-64.,20.,-36.));
#457=CARTESIAN_POINT('',(-64.,0.,-36.));
#458=CARTESIAN_POINT('',(5.16758353280073E-16,20.,0.));
#459=CARTESIAN_POINT('',(5.16758353280073E-16,0.,0.));
#460=CYLINDRICAL_SURFACE('',#286,7.5);
#461=CYLINDRICAL_SURFACE('',#291,4.5);
#462=CYLINDRICAL_SURFACE('',#293,7.5);
#463=CYLINDRICAL_SURFACE('',#298,4.5);
#464=CYLINDRICAL_SURFACE('',#300,7.5);
#465=CYLINDRICAL_SURFACE('',#305,4.5);
#466=CYLINDRICAL_SURFACE('',#307,7.5);
#467=CYLINDRICAL_SURFACE('',#312,4.5);
#468=CLOSED_SHELL('',(#268,#269,#270,#271,#272,#273,#274,#275,#276,#277,
#278,#279,#280,#281,#282,#283,#284,#285));
#469=MANIFOLD_SOLID_BREP('',#468);
#470=ADVANCED_BREP_SHAPE_REPRESENTATION('',(#469),#33);
ENDSEC;
END-ISO-10303-21;
