ISO-10303-21;
HEADER;

/* File generated by Alibre Version V22 */

FILE_DESCRIPTION(('HOOPS Exchange Step'),'2;1');

FILE_NAME('C:\\Users\\User\\AppData\\Local\\Temp\\Alibre Design\\export-40E9D8C0-4E57-412B-BAD5-93209B56FC5D.stp',
'2020-12-21T15:00:45+01:00',
('User'),
('Alibre'),
'HOOPS Exchange 2020.1',
'Alibre',
'Unknown authorisation');

FILE_SCHEMA( ('AP242_MANAGED_MODEL_BASED_3D_ENGINEERING_MIM_LF {1 0 10303 442 1 1 4 }') );

ENDSEC;

DATA;
#3=(NAMED_UNIT(*)PLANE_ANGLE_UNIT()SI_UNIT($,.RADIAN.));
#4=PLANE_ANGLE_MEASURE_WITH_UNIT(PLANE_ANGLE_MEASURE(0.0174532925),#3);
#5=(CONVERSION_BASED_UNIT('DEGREE',#4)NAMED_UNIT(#6)PLANE_ANGLE_UNIT());
#6=DIMENSIONAL_EXPONENTS(0.,0.,0.,0.,0.,0.,0.);
#7=(NAMED_UNIT(*)SI_UNIT($,.STERADIAN.)SOLID_ANGLE_UNIT());
#8=(LENGTH_UNIT()NAMED_UNIT(*)SI_UNIT(.MILLI.,.METRE.));
#9=UNCERTAINTY_MEASURE_WITH_UNIT(LENGTH_MEASURE(1.000000E-06),#8,'DISTANCE_ACCURACY_VALUE','Maximum Tolerance applied to model');
#10=(GEOMETRIC_REPRESENTATION_CONTEXT(3)GLOBAL_UNCERTAINTY_ASSIGNED_CONTEXT((#9))GLOBAL_UNIT_ASSIGNED_CONTEXT((#8,#5,#7))REPRESENTATION_CONTEXT('','5382 HDPE coverplate 128x72x20mm, for W1580300200'));
#12=CARTESIAN_POINT('',(0.,0.,0.));
#13=DIRECTION('',(0.,0.,1.));
#14=DIRECTION('',(1.,0.,0.));
#15=AXIS2_PLACEMENT_3D('',#12,#13,#14);
#27=CARTESIAN_POINT('',(51.,20.,-22.));
#28=DIRECTION('',(0.,-1.,0.));
#29=DIRECTION('',(1.,0.,0.));
#30=AXIS2_PLACEMENT_3D('',#27,#28,#29);
#31=CYLINDRICAL_SURFACE('',#30,7.5);
#32=CARTESIAN_POINT('',(43.5,9.,-22.));
#33=VERTEX_POINT('',#32);
#34=CARTESIAN_POINT('',(43.5,20.,-22.));
#35=VERTEX_POINT('',#34);
#36=CARTESIAN_POINT('',(43.5,9.,-22.));
#37=DIRECTION('',(-0.,1.,-0.));
#38=VECTOR('',#37,11.);
#39=LINE('',#36,#38);
#40=EDGE_CURVE('',#33,#35,#39,.T.);
#41=ORIENTED_EDGE('',*,*,#40,.F.);
#42=CARTESIAN_POINT('',(58.5,9.,-22.));
#43=VERTEX_POINT('',#42);
#44=CARTESIAN_POINT('',(51.,9.,-22.));
#45=DIRECTION('',(-0.,1.,0.));
#46=DIRECTION('',(1.,0.,0.));
#47=AXIS2_PLACEMENT_3D('',#44,#45,#46);
#48=CIRCLE('',#47,7.5);
#49=EDGE_CURVE('',#43,#33,#48,.T.);
#50=ORIENTED_EDGE('',*,*,#49,.F.);
#51=CARTESIAN_POINT('',(51.,9.,-22.));
#52=DIRECTION('',(-0.,1.,0.));
#53=DIRECTION('',(1.,0.,0.));
#54=AXIS2_PLACEMENT_3D('',#51,#52,#53);
#55=CIRCLE('',#54,7.5);
#56=EDGE_CURVE('',#33,#43,#55,.T.);
#57=ORIENTED_EDGE('',*,*,#56,.F.);
#58=ORIENTED_EDGE('',*,*,#40,.T.);
#59=CARTESIAN_POINT('',(58.5,20.,-22.));
#60=VERTEX_POINT('',#59);
#61=CARTESIAN_POINT('',(51.,20.,-22.));
#62=DIRECTION('',(0.,-1.,0.));
#63=DIRECTION('',(1.,0.,0.));
#64=AXIS2_PLACEMENT_3D('',#61,#62,#63);
#65=CIRCLE('',#64,7.5);
#66=EDGE_CURVE('',#60,#35,#65,.T.);
#67=ORIENTED_EDGE('',*,*,#66,.F.);
#68=CARTESIAN_POINT('',(51.,20.,-22.));
#69=DIRECTION('',(0.,-1.,0.));
#70=DIRECTION('',(1.,0.,0.));
#71=AXIS2_PLACEMENT_3D('',#68,#69,#70);
#72=CIRCLE('',#71,7.5);
#73=EDGE_CURVE('',#35,#60,#72,.T.);
#74=ORIENTED_EDGE('',*,*,#73,.F.);
#75=EDGE_LOOP('',(#41,#50,#57,#58,#67,#74));
#76=FACE_BOUND('',#75,.T.);
#77=ADVANCED_FACE('',(#76),#31,.F.);
#78=CARTESIAN_POINT('',(51.,9.,-22.));
#79=DIRECTION('',(0.,-1.,0.));
#80=DIRECTION('',(0.,0.,-1.));
#81=AXIS2_PLACEMENT_3D('',#78,#79,#80);
#82=PLANE('',#81);
#83=CARTESIAN_POINT('',(46.5,9.,-22.));
#84=VERTEX_POINT('',#83);
#85=CARTESIAN_POINT('',(51.,9.,-22.));
#86=DIRECTION('',(-0.,1.,0.));
#87=DIRECTION('',(1.,0.,0.));
#88=AXIS2_PLACEMENT_3D('',#85,#86,#87);
#89=CIRCLE('',#88,4.5);
#90=EDGE_CURVE('',#84,#84,#89,.T.);
#91=ORIENTED_EDGE('',*,*,#90,.F.);
#92=EDGE_LOOP('',(#91));
#93=FACE_BOUND('',#92,.T.);
#94=ORIENTED_EDGE('',*,*,#49,.T.);
#95=ORIENTED_EDGE('',*,*,#56,.T.);
#96=EDGE_LOOP('',(#94,#95));
#97=FACE_BOUND('',#96,.T.);
#98=ADVANCED_FACE('',(#93,#97),#82,.F.);
#99=CARTESIAN_POINT('',(51.,20.,-22.));
#100=DIRECTION('',(0.,-1.,0.));
#101=DIRECTION('',(1.,0.,0.));
#102=AXIS2_PLACEMENT_3D('',#99,#100,#101);
#103=CYLINDRICAL_SURFACE('',#102,4.5);
#104=CARTESIAN_POINT('',(46.5,0.,-22.));
#105=VERTEX_POINT('',#104);
#106=CARTESIAN_POINT('',(46.5,0.,-22.));
#107=DIRECTION('',(-0.,1.,-0.));
#108=VECTOR('',#107,9.);
#109=LINE('',#106,#108);
#110=EDGE_CURVE('',#105,#84,#109,.T.);
#111=ORIENTED_EDGE('',*,*,#110,.F.);
#112=CARTESIAN_POINT('',(55.5,0.,-22.));
#113=VERTEX_POINT('',#112);
#114=CARTESIAN_POINT('',(51.,0.,-22.));
#115=DIRECTION('',(-0.,1.,0.));
#116=DIRECTION('',(1.,0.,0.));
#117=AXIS2_PLACEMENT_3D('',#114,#115,#116);
#118=CIRCLE('',#117,4.5);
#119=EDGE_CURVE('',#113,#105,#118,.T.);
#120=ORIENTED_EDGE('',*,*,#119,.F.);
#121=CARTESIAN_POINT('',(51.,0.,-22.));
#122=DIRECTION('',(-0.,1.,0.));
#123=DIRECTION('',(1.,0.,0.));
#124=AXIS2_PLACEMENT_3D('',#121,#122,#123);
#125=CIRCLE('',#124,4.5);
#126=EDGE_CURVE('',#105,#113,#125,.T.);
#127=ORIENTED_EDGE('',*,*,#126,.F.);
#128=ORIENTED_EDGE('',*,*,#110,.T.);
#129=ORIENTED_EDGE('',*,*,#90,.T.);
#130=EDGE_LOOP('',(#111,#120,#127,#128,#129));
#131=FACE_BOUND('',#130,.T.);
#132=ADVANCED_FACE('',(#131),#103,.F.);
#133=CARTESIAN_POINT('',(51.,20.,22.));
#134=DIRECTION('',(0.,-1.,0.));
#135=DIRECTION('',(1.,0.,0.));
#136=AXIS2_PLACEMENT_3D('',#133,#134,#135);
#137=CYLINDRICAL_SURFACE('',#136,7.5);
#138=CARTESIAN_POINT('',(43.5,9.,22.));
#139=VERTEX_POINT('',#138);
#140=CARTESIAN_POINT('',(43.5,20.,22.));
#141=VERTEX_POINT('',#140);
#142=CARTESIAN_POINT('',(43.5,9.,22.));
#143=DIRECTION('',(-0.,1.,-0.));
#144=VECTOR('',#143,11.);
#145=LINE('',#142,#144);
#146=EDGE_CURVE('',#139,#141,#145,.T.);
#147=ORIENTED_EDGE('',*,*,#146,.F.);
#148=CARTESIAN_POINT('',(58.5,9.,22.));
#149=VERTEX_POINT('',#148);
#150=CARTESIAN_POINT('',(51.,9.,22.));
#151=DIRECTION('',(-0.,1.,0.));
#152=DIRECTION('',(1.,0.,0.));
#153=AXIS2_PLACEMENT_3D('',#150,#151,#152);
#154=CIRCLE('',#153,7.5);
#155=EDGE_CURVE('',#149,#139,#154,.T.);
#156=ORIENTED_EDGE('',*,*,#155,.F.);
#157=CARTESIAN_POINT('',(51.,9.,22.));
#158=DIRECTION('',(-0.,1.,0.));
#159=DIRECTION('',(1.,0.,0.));
#160=AXIS2_PLACEMENT_3D('',#157,#158,#159);
#161=CIRCLE('',#160,7.5);
#162=EDGE_CURVE('',#139,#149,#161,.T.);
#163=ORIENTED_EDGE('',*,*,#162,.F.);
#164=ORIENTED_EDGE('',*,*,#146,.T.);
#165=CARTESIAN_POINT('',(58.5,20.,22.));
#166=VERTEX_POINT('',#165);
#167=CARTESIAN_POINT('',(51.,20.,22.));
#168=DIRECTION('',(0.,-1.,0.));
#169=DIRECTION('',(1.,0.,0.));
#170=AXIS2_PLACEMENT_3D('',#167,#168,#169);
#171=CIRCLE('',#170,7.5);
#172=EDGE_CURVE('',#166,#141,#171,.T.);
#173=ORIENTED_EDGE('',*,*,#172,.F.);
#174=CARTESIAN_POINT('',(51.,20.,22.));
#175=DIRECTION('',(0.,-1.,0.));
#176=DIRECTION('',(1.,0.,0.));
#177=AXIS2_PLACEMENT_3D('',#174,#175,#176);
#178=CIRCLE('',#177,7.5);
#179=EDGE_CURVE('',#141,#166,#178,.T.);
#180=ORIENTED_EDGE('',*,*,#179,.F.);
#181=EDGE_LOOP('',(#147,#156,#163,#164,#173,#180));
#182=FACE_BOUND('',#181,.T.);
#183=ADVANCED_FACE('',(#182),#137,.F.);
#184=CARTESIAN_POINT('',(51.,9.,22.));
#185=DIRECTION('',(0.,-1.,0.));
#186=DIRECTION('',(0.,0.,-1.));
#187=AXIS2_PLACEMENT_3D('',#184,#185,#186);
#188=PLANE('',#187);
#189=CARTESIAN_POINT('',(46.5,9.,22.));
#190=VERTEX_POINT('',#189);
#191=CARTESIAN_POINT('',(51.,9.,22.));
#192=DIRECTION('',(-0.,1.,0.));
#193=DIRECTION('',(1.,0.,0.));
#194=AXIS2_PLACEMENT_3D('',#191,#192,#193);
#195=CIRCLE('',#194,4.5);
#196=EDGE_CURVE('',#190,#190,#195,.T.);
#197=ORIENTED_EDGE('',*,*,#196,.F.);
#198=EDGE_LOOP('',(#197));
#199=FACE_BOUND('',#198,.T.);
#200=ORIENTED_EDGE('',*,*,#155,.T.);
#201=ORIENTED_EDGE('',*,*,#162,.T.);
#202=EDGE_LOOP('',(#200,#201));
#203=FACE_BOUND('',#202,.T.);
#204=ADVANCED_FACE('',(#199,#203),#188,.F.);
#205=CARTESIAN_POINT('',(51.,20.,22.));
#206=DIRECTION('',(0.,-1.,0.));
#207=DIRECTION('',(1.,0.,0.));
#208=AXIS2_PLACEMENT_3D('',#205,#206,#207);
#209=CYLINDRICAL_SURFACE('',#208,4.5);
#210=CARTESIAN_POINT('',(46.5,0.,22.));
#211=VERTEX_POINT('',#210);
#212=CARTESIAN_POINT('',(46.5,0.,22.));
#213=DIRECTION('',(-0.,1.,-0.));
#214=VECTOR('',#213,9.);
#215=LINE('',#212,#214);
#216=EDGE_CURVE('',#211,#190,#215,.T.);
#217=ORIENTED_EDGE('',*,*,#216,.F.);
#218=CARTESIAN_POINT('',(55.5,0.,22.));
#219=VERTEX_POINT('',#218);
#220=CARTESIAN_POINT('',(51.,0.,22.));
#221=DIRECTION('',(-0.,1.,0.));
#222=DIRECTION('',(1.,0.,0.));
#223=AXIS2_PLACEMENT_3D('',#220,#221,#222);
#224=CIRCLE('',#223,4.5);
#225=EDGE_CURVE('',#219,#211,#224,.T.);
#226=ORIENTED_EDGE('',*,*,#225,.F.);
#227=CARTESIAN_POINT('',(51.,0.,22.));
#228=DIRECTION('',(-0.,1.,0.));
#229=DIRECTION('',(1.,0.,0.));
#230=AXIS2_PLACEMENT_3D('',#227,#228,#229);
#231=CIRCLE('',#230,4.5);
#232=EDGE_CURVE('',#211,#219,#231,.T.);
#233=ORIENTED_EDGE('',*,*,#232,.F.);
#234=ORIENTED_EDGE('',*,*,#216,.T.);
#235=ORIENTED_EDGE('',*,*,#196,.T.);
#236=EDGE_LOOP('',(#217,#226,#233,#234,#235));
#237=FACE_BOUND('',#236,.T.);
#238=ADVANCED_FACE('',(#237),#209,.F.);
#239=CARTESIAN_POINT('',(-51.,20.,22.));
#240=DIRECTION('',(0.,-1.,0.));
#241=DIRECTION('',(1.,0.,0.));
#242=AXIS2_PLACEMENT_3D('',#239,#240,#241);
#243=CYLINDRICAL_SURFACE('',#242,7.5);
#244=CARTESIAN_POINT('',(-58.5,9.,22.));
#245=VERTEX_POINT('',#244);
#246=CARTESIAN_POINT('',(-58.5,20.,22.));
#247=VERTEX_POINT('',#246);
#248=CARTESIAN_POINT('',(-58.5,9.,22.));
#249=DIRECTION('',(-0.,1.,-0.));
#250=VECTOR('',#249,11.);
#251=LINE('',#248,#250);
#252=EDGE_CURVE('',#245,#247,#251,.T.);
#253=ORIENTED_EDGE('',*,*,#252,.F.);
#254=CARTESIAN_POINT('',(-43.5,9.,22.));
#255=VERTEX_POINT('',#254);
#256=CARTESIAN_POINT('',(-51.,9.,22.));
#257=DIRECTION('',(-0.,1.,0.));
#258=DIRECTION('',(1.,0.,0.));
#259=AXIS2_PLACEMENT_3D('',#256,#257,#258);
#260=CIRCLE('',#259,7.5);
#261=EDGE_CURVE('',#255,#245,#260,.T.);
#262=ORIENTED_EDGE('',*,*,#261,.F.);
#263=CARTESIAN_POINT('',(-51.,9.,22.));
#264=DIRECTION('',(-0.,1.,0.));
#265=DIRECTION('',(1.,0.,0.));
#266=AXIS2_PLACEMENT_3D('',#263,#264,#265);
#267=CIRCLE('',#266,7.5);
#268=EDGE_CURVE('',#245,#255,#267,.T.);
#269=ORIENTED_EDGE('',*,*,#268,.F.);
#270=ORIENTED_EDGE('',*,*,#252,.T.);
#271=CARTESIAN_POINT('',(-43.5,20.,22.));
#272=VERTEX_POINT('',#271);
#273=CARTESIAN_POINT('',(-51.,20.,22.));
#274=DIRECTION('',(0.,-1.,0.));
#275=DIRECTION('',(1.,0.,0.));
#276=AXIS2_PLACEMENT_3D('',#273,#274,#275);
#277=CIRCLE('',#276,7.5);
#278=EDGE_CURVE('',#272,#247,#277,.T.);
#279=ORIENTED_EDGE('',*,*,#278,.F.);
#280=CARTESIAN_POINT('',(-51.,20.,22.));
#281=DIRECTION('',(0.,-1.,0.));
#282=DIRECTION('',(1.,0.,0.));
#283=AXIS2_PLACEMENT_3D('',#280,#281,#282);
#284=CIRCLE('',#283,7.5);
#285=EDGE_CURVE('',#247,#272,#284,.T.);
#286=ORIENTED_EDGE('',*,*,#285,.F.);
#287=EDGE_LOOP('',(#253,#262,#269,#270,#279,#286));
#288=FACE_BOUND('',#287,.T.);
#289=ADVANCED_FACE('',(#288),#243,.F.);
#290=CARTESIAN_POINT('',(-51.,9.,22.));
#291=DIRECTION('',(0.,-1.,0.));
#292=DIRECTION('',(0.,0.,-1.));
#293=AXIS2_PLACEMENT_3D('',#290,#291,#292);
#294=PLANE('',#293);
#295=CARTESIAN_POINT('',(-55.5,9.,22.));
#296=VERTEX_POINT('',#295);
#297=CARTESIAN_POINT('',(-51.,9.,22.));
#298=DIRECTION('',(-0.,1.,0.));
#299=DIRECTION('',(1.,0.,0.));
#300=AXIS2_PLACEMENT_3D('',#297,#298,#299);
#301=CIRCLE('',#300,4.5);
#302=EDGE_CURVE('',#296,#296,#301,.T.);
#303=ORIENTED_EDGE('',*,*,#302,.F.);
#304=EDGE_LOOP('',(#303));
#305=FACE_BOUND('',#304,.T.);
#306=ORIENTED_EDGE('',*,*,#261,.T.);
#307=ORIENTED_EDGE('',*,*,#268,.T.);
#308=EDGE_LOOP('',(#306,#307));
#309=FACE_BOUND('',#308,.T.);
#310=ADVANCED_FACE('',(#305,#309),#294,.F.);
#311=CARTESIAN_POINT('',(-51.,20.,22.));
#312=DIRECTION('',(0.,-1.,0.));
#313=DIRECTION('',(1.,0.,0.));
#314=AXIS2_PLACEMENT_3D('',#311,#312,#313);
#315=CYLINDRICAL_SURFACE('',#314,4.5);
#316=CARTESIAN_POINT('',(-55.5,0.,22.));
#317=VERTEX_POINT('',#316);
#318=CARTESIAN_POINT('',(-55.5,0.,22.));
#319=DIRECTION('',(-0.,1.,-0.));
#320=VECTOR('',#319,9.);
#321=LINE('',#318,#320);
#322=EDGE_CURVE('',#317,#296,#321,.T.);
#323=ORIENTED_EDGE('',*,*,#322,.F.);
#324=CARTESIAN_POINT('',(-46.5,0.,22.));
#325=VERTEX_POINT('',#324);
#326=CARTESIAN_POINT('',(-51.,0.,22.));
#327=DIRECTION('',(-0.,1.,0.));
#328=DIRECTION('',(1.,0.,0.));
#329=AXIS2_PLACEMENT_3D('',#326,#327,#328);
#330=CIRCLE('',#329,4.5);
#331=EDGE_CURVE('',#325,#317,#330,.T.);
#332=ORIENTED_EDGE('',*,*,#331,.F.);
#333=CARTESIAN_POINT('',(-51.,0.,22.));
#334=DIRECTION('',(-0.,1.,0.));
#335=DIRECTION('',(1.,0.,0.));
#336=AXIS2_PLACEMENT_3D('',#333,#334,#335);
#337=CIRCLE('',#336,4.5);
#338=EDGE_CURVE('',#317,#325,#337,.T.);
#339=ORIENTED_EDGE('',*,*,#338,.F.);
#340=ORIENTED_EDGE('',*,*,#322,.T.);
#341=ORIENTED_EDGE('',*,*,#302,.T.);
#342=EDGE_LOOP('',(#323,#332,#339,#340,#341));
#343=FACE_BOUND('',#342,.T.);
#344=ADVANCED_FACE('',(#343),#315,.F.);
#345=CARTESIAN_POINT('',(-51.,20.,-22.));
#346=DIRECTION('',(0.,-1.,0.));
#347=DIRECTION('',(1.,0.,0.));
#348=AXIS2_PLACEMENT_3D('',#345,#346,#347);
#349=CYLINDRICAL_SURFACE('',#348,7.5);
#350=CARTESIAN_POINT('',(-58.5,9.,-22.));
#351=VERTEX_POINT('',#350);
#352=CARTESIAN_POINT('',(-58.5,20.,-22.));
#353=VERTEX_POINT('',#352);
#354=CARTESIAN_POINT('',(-58.5,9.,-22.));
#355=DIRECTION('',(-0.,1.,-0.));
#356=VECTOR('',#355,11.);
#357=LINE('',#354,#356);
#358=EDGE_CURVE('',#351,#353,#357,.T.);
#359=ORIENTED_EDGE('',*,*,#358,.F.);
#360=CARTESIAN_POINT('',(-43.5,9.,-22.));
#361=VERTEX_POINT('',#360);
#362=CARTESIAN_POINT('',(-51.,9.,-22.));
#363=DIRECTION('',(-0.,1.,0.));
#364=DIRECTION('',(1.,0.,0.));
#365=AXIS2_PLACEMENT_3D('',#362,#363,#364);
#366=CIRCLE('',#365,7.5);
#367=EDGE_CURVE('',#361,#351,#366,.T.);
#368=ORIENTED_EDGE('',*,*,#367,.F.);
#369=CARTESIAN_POINT('',(-51.,9.,-22.));
#370=DIRECTION('',(-0.,1.,0.));
#371=DIRECTION('',(1.,0.,0.));
#372=AXIS2_PLACEMENT_3D('',#369,#370,#371);
#373=CIRCLE('',#372,7.5);
#374=EDGE_CURVE('',#351,#361,#373,.T.);
#375=ORIENTED_EDGE('',*,*,#374,.F.);
#376=ORIENTED_EDGE('',*,*,#358,.T.);
#377=CARTESIAN_POINT('',(-43.5,20.,-22.));
#378=VERTEX_POINT('',#377);
#379=CARTESIAN_POINT('',(-51.,20.,-22.));
#380=DIRECTION('',(0.,-1.,0.));
#381=DIRECTION('',(1.,0.,0.));
#382=AXIS2_PLACEMENT_3D('',#379,#380,#381);
#383=CIRCLE('',#382,7.5);
#384=EDGE_CURVE('',#378,#353,#383,.T.);
#385=ORIENTED_EDGE('',*,*,#384,.F.);
#386=CARTESIAN_POINT('',(-51.,20.,-22.));
#387=DIRECTION('',(0.,-1.,0.));
#388=DIRECTION('',(1.,0.,0.));
#389=AXIS2_PLACEMENT_3D('',#386,#387,#388);
#390=CIRCLE('',#389,7.5);
#391=EDGE_CURVE('',#353,#378,#390,.T.);
#392=ORIENTED_EDGE('',*,*,#391,.F.);
#393=EDGE_LOOP('',(#359,#368,#375,#376,#385,#392));
#394=FACE_BOUND('',#393,.T.);
#395=ADVANCED_FACE('',(#394),#349,.F.);
#396=CARTESIAN_POINT('',(-51.,9.,-22.));
#397=DIRECTION('',(0.,-1.,0.));
#398=DIRECTION('',(0.,0.,-1.));
#399=AXIS2_PLACEMENT_3D('',#396,#397,#398);
#400=PLANE('',#399);
#401=CARTESIAN_POINT('',(-55.5,9.,-22.));
#402=VERTEX_POINT('',#401);
#403=CARTESIAN_POINT('',(-51.,9.,-22.));
#404=DIRECTION('',(-0.,1.,0.));
#405=DIRECTION('',(1.,0.,0.));
#406=AXIS2_PLACEMENT_3D('',#403,#404,#405);
#407=CIRCLE('',#406,4.5);
#408=EDGE_CURVE('',#402,#402,#407,.T.);
#409=ORIENTED_EDGE('',*,*,#408,.F.);
#410=EDGE_LOOP('',(#409));
#411=FACE_BOUND('',#410,.T.);
#412=ORIENTED_EDGE('',*,*,#367,.T.);
#413=ORIENTED_EDGE('',*,*,#374,.T.);
#414=EDGE_LOOP('',(#412,#413));
#415=FACE_BOUND('',#414,.T.);
#416=ADVANCED_FACE('',(#411,#415),#400,.F.);
#417=CARTESIAN_POINT('',(-51.,20.,-22.));
#418=DIRECTION('',(0.,-1.,0.));
#419=DIRECTION('',(1.,0.,0.));
#420=AXIS2_PLACEMENT_3D('',#417,#418,#419);
#421=CYLINDRICAL_SURFACE('',#420,4.5);
#422=CARTESIAN_POINT('',(-55.5,0.,-22.));
#423=VERTEX_POINT('',#422);
#424=CARTESIAN_POINT('',(-55.5,0.,-22.));
#425=DIRECTION('',(-0.,1.,-0.));
#426=VECTOR('',#425,9.);
#427=LINE('',#424,#426);
#428=EDGE_CURVE('',#423,#402,#427,.T.);
#429=ORIENTED_EDGE('',*,*,#428,.F.);
#430=CARTESIAN_POINT('',(-46.5,0.,-22.));
#431=VERTEX_POINT('',#430);
#432=CARTESIAN_POINT('',(-51.,0.,-22.));
#433=DIRECTION('',(-0.,1.,0.));
#434=DIRECTION('',(1.,0.,0.));
#435=AXIS2_PLACEMENT_3D('',#432,#433,#434);
#436=CIRCLE('',#435,4.5);
#437=EDGE_CURVE('',#431,#423,#436,.T.);
#438=ORIENTED_EDGE('',*,*,#437,.F.);
#439=CARTESIAN_POINT('',(-51.,0.,-22.));
#440=DIRECTION('',(-0.,1.,0.));
#441=DIRECTION('',(1.,0.,0.));
#442=AXIS2_PLACEMENT_3D('',#439,#440,#441);
#443=CIRCLE('',#442,4.5);
#444=EDGE_CURVE('',#423,#431,#443,.T.);
#445=ORIENTED_EDGE('',*,*,#444,.F.);
#446=ORIENTED_EDGE('',*,*,#428,.T.);
#447=ORIENTED_EDGE('',*,*,#408,.T.);
#448=EDGE_LOOP('',(#429,#438,#445,#446,#447));
#449=FACE_BOUND('',#448,.T.);
#450=ADVANCED_FACE('',(#449),#421,.F.);
#451=CARTESIAN_POINT('',(0.,0.,-36.));
#452=DIRECTION('',(0.,0.,-1.));
#453=DIRECTION('',(-1.,0.,0.));
#454=AXIS2_PLACEMENT_3D('',#451,#452,#453);
#455=PLANE('',#454);
#456=CARTESIAN_POINT('',(-64.,20.,-36.));
#457=VERTEX_POINT('',#456);
#458=CARTESIAN_POINT('',(64.,20.,-36.));
#459=VERTEX_POINT('',#458);
#460=CARTESIAN_POINT('',(-1216.,20.,-36.));
#461=DIRECTION('',(1.,0.,-0.));
#462=VECTOR('',#461,1280.);
#463=LINE('',#460,#462);
#464=EDGE_CURVE('',#457,#459,#463,.T.);
#465=ORIENTED_EDGE('',*,*,#464,.T.);
#466=CARTESIAN_POINT('',(64.,0.,-36.));
#467=VERTEX_POINT('',#466);
#468=CARTESIAN_POINT('',(64.,0.,-36.));
#469=DIRECTION('',(0.,1.,0.));
#470=VECTOR('',#469,200.);
#471=LINE('',#468,#470);
#472=EDGE_CURVE('',#467,#459,#471,.T.);
#473=ORIENTED_EDGE('',*,*,#472,.F.);
#474=CARTESIAN_POINT('',(-64.,0.,-36.));
#475=VERTEX_POINT('',#474);
#476=CARTESIAN_POINT('',(64.,0.,-36.));
#477=DIRECTION('',(-1.,0.,0.));
#478=VECTOR('',#477,1280.);
#479=LINE('',#476,#478);
#480=EDGE_CURVE('',#467,#475,#479,.T.);
#481=ORIENTED_EDGE('',*,*,#480,.T.);
#482=CARTESIAN_POINT('',(-64.,0.,-36.));
#483=DIRECTION('',(0.,1.,0.));
#484=VECTOR('',#483,200.);
#485=LINE('',#482,#484);
#486=EDGE_CURVE('',#475,#457,#485,.T.);
#487=ORIENTED_EDGE('',*,*,#486,.T.);
#488=EDGE_LOOP('',(#465,#473,#481,#487));
#489=FACE_BOUND('',#488,.T.);
#490=ADVANCED_FACE('',(#489),#455,.T.);
#491=CARTESIAN_POINT('',(64.,0.,0.));
#492=DIRECTION('',(1.,0.,0.));
#493=DIRECTION('',(0.,0.,-1.));
#494=AXIS2_PLACEMENT_3D('',#491,#492,#493);
#495=PLANE('',#494);
#496=CARTESIAN_POINT('',(64.,20.,36.));
#497=VERTEX_POINT('',#496);
#498=CARTESIAN_POINT('',(64.,20.,-684.));
#499=DIRECTION('',(0.,0.,1.));
#500=VECTOR('',#499,720.);
#501=LINE('',#498,#500);
#502=EDGE_CURVE('',#459,#497,#501,.T.);
#503=ORIENTED_EDGE('',*,*,#502,.T.);
#504=CARTESIAN_POINT('',(64.,0.,36.));
#505=VERTEX_POINT('',#504);
#506=CARTESIAN_POINT('',(64.,0.,36.));
#507=DIRECTION('',(0.,1.,0.));
#508=VECTOR('',#507,200.);
#509=LINE('',#506,#508);
#510=EDGE_CURVE('',#505,#497,#509,.T.);
#511=ORIENTED_EDGE('',*,*,#510,.F.);
#512=CARTESIAN_POINT('',(64.,0.,36.));
#513=DIRECTION('',(0.,0.,-1.));
#514=VECTOR('',#513,720.);
#515=LINE('',#512,#514);
#516=EDGE_CURVE('',#505,#467,#515,.T.);
#517=ORIENTED_EDGE('',*,*,#516,.T.);
#518=ORIENTED_EDGE('',*,*,#472,.T.);
#519=EDGE_LOOP('',(#503,#511,#517,#518));
#520=FACE_BOUND('',#519,.T.);
#521=ADVANCED_FACE('',(#520),#495,.T.);
#522=CARTESIAN_POINT('',(0.,0.,36.));
#523=DIRECTION('',(0.,0.,1.));
#524=DIRECTION('',(1.,0.,0.));
#525=AXIS2_PLACEMENT_3D('',#522,#523,#524);
#526=PLANE('',#525);
#527=CARTESIAN_POINT('',(-64.,20.,36.));
#528=VERTEX_POINT('',#527);
#529=CARTESIAN_POINT('',(1216.,20.,36.));
#530=DIRECTION('',(-1.,0.,0.));
#531=VECTOR('',#530,1280.);
#532=LINE('',#529,#531);
#533=EDGE_CURVE('',#497,#528,#532,.T.);
#534=ORIENTED_EDGE('',*,*,#533,.T.);
#535=CARTESIAN_POINT('',(-64.,0.,36.));
#536=VERTEX_POINT('',#535);
#537=CARTESIAN_POINT('',(-64.,0.,36.));
#538=DIRECTION('',(0.,1.,0.));
#539=VECTOR('',#538,200.);
#540=LINE('',#537,#539);
#541=EDGE_CURVE('',#536,#528,#540,.T.);
#542=ORIENTED_EDGE('',*,*,#541,.F.);
#543=CARTESIAN_POINT('',(-64.,0.,36.));
#544=DIRECTION('',(1.,0.,-0.));
#545=VECTOR('',#544,1280.);
#546=LINE('',#543,#545);
#547=EDGE_CURVE('',#536,#505,#546,.T.);
#548=ORIENTED_EDGE('',*,*,#547,.T.);
#549=ORIENTED_EDGE('',*,*,#510,.T.);
#550=EDGE_LOOP('',(#534,#542,#548,#549));
#551=FACE_BOUND('',#550,.T.);
#552=ADVANCED_FACE('',(#551),#526,.T.);
#553=CARTESIAN_POINT('',(-64.,0.,0.));
#554=DIRECTION('',(-1.,0.,0.));
#555=DIRECTION('',(0.,0.,1.));
#556=AXIS2_PLACEMENT_3D('',#553,#554,#555);
#557=PLANE('',#556);
#558=CARTESIAN_POINT('',(-64.,20.,684.));
#559=DIRECTION('',(0.,0.,-1.));
#560=VECTOR('',#559,720.);
#561=LINE('',#558,#560);
#562=EDGE_CURVE('',#528,#457,#561,.T.);
#563=ORIENTED_EDGE('',*,*,#562,.T.);
#564=ORIENTED_EDGE('',*,*,#486,.F.);
#565=CARTESIAN_POINT('',(-64.,0.,-36.));
#566=DIRECTION('',(0.,0.,1.));
#567=VECTOR('',#566,720.);
#568=LINE('',#565,#567);
#569=EDGE_CURVE('',#475,#536,#568,.T.);
#570=ORIENTED_EDGE('',*,*,#569,.T.);
#571=ORIENTED_EDGE('',*,*,#541,.T.);
#572=EDGE_LOOP('',(#563,#564,#570,#571));
#573=FACE_BOUND('',#572,.T.);
#574=ADVANCED_FACE('',(#573),#557,.T.);
#575=CARTESIAN_POINT('',(0.,20.,0.));
#576=DIRECTION('',(0.,1.,0.));
#577=DIRECTION('',(0.,0.,1.));
#578=AXIS2_PLACEMENT_3D('',#575,#576,#577);
#579=PLANE('',#578);
#580=ORIENTED_EDGE('',*,*,#66,.T.);
#581=ORIENTED_EDGE('',*,*,#73,.T.);
#582=EDGE_LOOP('',(#580,#581));
#583=FACE_BOUND('',#582,.T.);
#584=ORIENTED_EDGE('',*,*,#172,.T.);
#585=ORIENTED_EDGE('',*,*,#179,.T.);
#586=EDGE_LOOP('',(#584,#585));
#587=FACE_BOUND('',#586,.T.);
#588=ORIENTED_EDGE('',*,*,#278,.T.);
#589=ORIENTED_EDGE('',*,*,#285,.T.);
#590=EDGE_LOOP('',(#588,#589));
#591=FACE_BOUND('',#590,.T.);
#592=ORIENTED_EDGE('',*,*,#384,.T.);
#593=ORIENTED_EDGE('',*,*,#391,.T.);
#594=EDGE_LOOP('',(#592,#593));
#595=FACE_BOUND('',#594,.T.);
#596=ORIENTED_EDGE('',*,*,#464,.F.);
#597=ORIENTED_EDGE('',*,*,#562,.F.);
#598=ORIENTED_EDGE('',*,*,#533,.F.);
#599=ORIENTED_EDGE('',*,*,#502,.F.);
#600=EDGE_LOOP('',(#596,#597,#598,#599));
#601=FACE_BOUND('',#600,.T.);
#602=ADVANCED_FACE('',(#583,#587,#591,#595,#601),#579,.T.);
#603=CARTESIAN_POINT('',(0.,0.,0.));
#604=DIRECTION('',(0.,1.,0.));
#605=DIRECTION('',(0.,0.,1.));
#606=AXIS2_PLACEMENT_3D('',#603,#604,#605);
#607=PLANE('',#606);
#608=ORIENTED_EDGE('',*,*,#119,.T.);
#609=ORIENTED_EDGE('',*,*,#126,.T.);
#610=EDGE_LOOP('',(#608,#609));
#611=FACE_BOUND('',#610,.T.);
#612=ORIENTED_EDGE('',*,*,#225,.T.);
#613=ORIENTED_EDGE('',*,*,#232,.T.);
#614=EDGE_LOOP('',(#612,#613));
#615=FACE_BOUND('',#614,.T.);
#616=ORIENTED_EDGE('',*,*,#331,.T.);
#617=ORIENTED_EDGE('',*,*,#338,.T.);
#618=EDGE_LOOP('',(#616,#617));
#619=FACE_BOUND('',#618,.T.);
#620=ORIENTED_EDGE('',*,*,#437,.T.);
#621=ORIENTED_EDGE('',*,*,#444,.T.);
#622=EDGE_LOOP('',(#620,#621));
#623=FACE_BOUND('',#622,.T.);
#624=ORIENTED_EDGE('',*,*,#569,.F.);
#625=ORIENTED_EDGE('',*,*,#480,.F.);
#626=ORIENTED_EDGE('',*,*,#516,.F.);
#627=ORIENTED_EDGE('',*,*,#547,.F.);
#628=EDGE_LOOP('',(#624,#625,#626,#627));
#629=FACE_BOUND('',#628,.T.);
#630=ADVANCED_FACE('',(#611,#615,#619,#623,#629),#607,.F.);
#631=CLOSED_SHELL('',(#77,#98,#132,#183,#204,#238,#289,#310,#344,#395,#416,#450,#490,#521,#552,#574,#602,#630));
#632=MANIFOLD_SOLID_BREP('alibrePartClosedBody',#631);
#633=DRAUGHTING_PRE_DEFINED_COLOUR('black');
#634=FILL_AREA_STYLE_COLOUR('',#633);
#635=FILL_AREA_STYLE('',(#634));
#636=SURFACE_STYLE_FILL_AREA(#635);
#637=SURFACE_SIDE_STYLE('',(#636));
#638=SURFACE_STYLE_USAGE(.BOTH.,#637);
#639=PRESENTATION_STYLE_ASSIGNMENT((#638));
#26=STYLED_ITEM('',(#639),#632);
#16=SHAPE_REPRESENTATION('5382 HDPE coverplate 128x72x20mm, for W1580300200',(#15),#10);
#17=ADVANCED_BREP_SHAPE_REPRESENTATION('5382 HDPE coverplate 128x72x20mm, for W1580300200',(#632),#10);
#647=SHAPE_REPRESENTATION_RELATIONSHIP('','',#16,#17);
#648=CARTESIAN_POINT('',(0.,0.,0.));
#649=DIRECTION('',(0.,0.,1.));
#650=DIRECTION('',(1.,0.,0.));
#651=AXIS2_PLACEMENT_3D('',#648,#649,#650);
#653=MAPPED_ITEM('',#652,#651);
#652=REPRESENTATION_MAP(#651,#16);
#654=APPLICATION_CONTEXT('Managed model based 3d engineering');
#655=APPLICATION_PROTOCOL_DEFINITION('international standard','ap242_managed_model_based_3d_engineering',2013,#654);
#656=PRODUCT_CONTEXT('',#654,'mechanical');
#657=PRODUCT_DEFINITION_CONTEXT('part definition',#654,'design');
#24=PRODUCT('5382 HDPE coverplate 128x72x20mm, for W1580300200','5382 HDPE coverplate 128x72x20mm, for W1580300200','',(#656));
#658=PRODUCT_RELATED_PRODUCT_CATEGORY('part','',(#24));
#659=PRODUCT_DEFINITION_FORMATION_WITH_SPECIFIED_SOURCE('','',#24,.NOT_KNOWN.);
#25=PRODUCT_DEFINITION('design','',#659,#657);
#23=PRODUCT_DEFINITION_SHAPE('','',#25);
#660=SHAPE_DEFINITION_REPRESENTATION(#23,#16);
#11=DRAUGHTING_MODEL('',(#653),#10);
#1=MECHANICAL_DESIGN_GEOMETRIC_PRESENTATION_REPRESENTATION('',(#26),#10);
ENDSEC;
END-ISO-10303-21;
