ISO-10303-21;
HEADER;
/* Generated by software containing ST-Developer
 * from STEP Tools, Inc. (www.steptools.com) 
 */

FILE_DESCRIPTION(
/* description */ ('Alibre Inc.'),
/* implementation_level */ '2;1');

FILE_NAME(
/* name */ 'export-138928C3-2280-49AB-9CCD-14DB60ED7FE9',
/* time_stamp */ '2022-01-19T13:53:11+01:00',
/* author */ (''),
/* organization */ (''),
/* preprocessor_version */ 'ST-DEVELOPER v17',
/* originating_system */ 'Alibre',
/* authorisation */ '');

FILE_SCHEMA (('AUTOMOTIVE_DESIGN'));
ENDSEC;

DATA;
#10=STYLED_ITEM('NAME_0',(#18),#455);
#11=MECHANICAL_DESIGN_GEOMETRIC_PRESENTATION_REPRESENTATION('NAME_0',(#10),
#33);
#12=COLOUR_RGB('',0.988235294117647,0.737254901960784,0.517647058823529);
#13=FILL_AREA_STYLE_COLOUR('NAME_0',#12);
#14=FILL_AREA_STYLE('NAME_0',(#13));
#15=SURFACE_STYLE_FILL_AREA(#14);
#16=SURFACE_SIDE_STYLE('NAME_0',(#15));
#17=SURFACE_STYLE_USAGE(.POSITIVE.,#16);
#18=PRESENTATION_STYLE_ASSIGNMENT((#17));
#19=PRODUCT_DEFINITION_CONTEXT('part definition',#26,'design');
#20=SHAPE_DEFINITION_REPRESENTATION(#21,#456);
#21=PRODUCT_DEFINITION_SHAPE('PRODUCT_VERSION_ID',
'PRODUCT_VERSION_DESCR',#22);
#22=PRODUCT_DEFINITION('PRODUCT_VERSION_ID','PRODUCT_VERSION_DESCR',#23,
#19);
#23=PRODUCT_DEFINITION_FORMATION_WITH_SPECIFIED_SOURCE(
'PRODUCT_VERSION_ID','PRODUCT_VERSION_DESCR',#28,.MADE.);
#24=PRODUCT_RELATED_PRODUCT_CATEGORY('part','part',(#28));
#25=APPLICATION_PROTOCOL_DEFINITION('Draft International Standard',
'automotive_design',1994,#26);
#26=APPLICATION_CONTEXT('automotive_Design');
#27=PRODUCT_CONTEXT('3D Mechanical Parts',#26,'mechanical');
#28=PRODUCT('GSA20 EPDM pakking_1','5808 NBR Gasket for GSA20','',(#27));
#29=(
LENGTH_UNIT()
NAMED_UNIT(*)
SI_UNIT(.MILLI.,.METRE.)
);
#30=(
NAMED_UNIT(*)
PLANE_ANGLE_UNIT()
SI_UNIT($,.RADIAN.)
);
#31=(
NAMED_UNIT(*)
SI_UNIT($,.STERADIAN.)
SOLID_ANGLE_UNIT()
);
#32=UNCERTAINTY_MEASURE_WITH_UNIT(LENGTH_MEASURE(1.E-6),#29,
'DISTANCE_ACCURACY_VALUE',
'Maximum model space distance between geometric entities at asserted c
onnectivities');
#33=(
GEOMETRIC_REPRESENTATION_CONTEXT(3)
GLOBAL_UNCERTAINTY_ASSIGNED_CONTEXT((#32))
GLOBAL_UNIT_ASSIGNED_CONTEXT((#31,#30,#29))
REPRESENTATION_CONTEXT('ID1','3D')
);
#34=CYLINDRICAL_SURFACE('',#285,4.);
#35=CYLINDRICAL_SURFACE('',#288,4.);
#36=CYLINDRICAL_SURFACE('',#291,2.);
#37=CYLINDRICAL_SURFACE('',#294,2.);
#38=CYLINDRICAL_SURFACE('',#297,2.);
#39=CYLINDRICAL_SURFACE('',#300,2.);
#40=CIRCLE('',#279,4.);
#41=CIRCLE('',#280,4.);
#42=CIRCLE('',#281,2.);
#43=CIRCLE('',#282,2.);
#44=CIRCLE('',#283,2.);
#45=CIRCLE('',#284,2.);
#46=CIRCLE('',#286,4.);
#47=CIRCLE('',#289,4.);
#48=CIRCLE('',#292,2.);
#49=CIRCLE('',#295,2.);
#50=CIRCLE('',#298,2.);
#51=CIRCLE('',#301,2.);
#52=VERTEX_POINT('',#374);
#53=VERTEX_POINT('',#375);
#54=VERTEX_POINT('',#377);
#55=VERTEX_POINT('',#379);
#56=VERTEX_POINT('',#382);
#57=VERTEX_POINT('',#383);
#58=VERTEX_POINT('',#385);
#59=VERTEX_POINT('',#387);
#60=VERTEX_POINT('',#389);
#61=VERTEX_POINT('',#391);
#62=VERTEX_POINT('',#393);
#63=VERTEX_POINT('',#395);
#64=VERTEX_POINT('',#399);
#65=VERTEX_POINT('',#401);
#66=VERTEX_POINT('',#405);
#67=VERTEX_POINT('',#409);
#68=VERTEX_POINT('',#415);
#69=VERTEX_POINT('',#417);
#70=VERTEX_POINT('',#421);
#71=VERTEX_POINT('',#425);
#72=VERTEX_POINT('',#429);
#73=VERTEX_POINT('',#433);
#74=VERTEX_POINT('',#437);
#75=VERTEX_POINT('',#441);
#76=VECTOR('',#305,1.);
#77=VECTOR('',#308,1.);
#78=VECTOR('',#311,1.);
#79=VECTOR('',#314,1.);
#80=VECTOR('',#317,1.);
#81=VECTOR('',#320,1.);
#82=VECTOR('',#325,1.);
#83=VECTOR('',#328,1.);
#84=VECTOR('',#330,1.);
#85=VECTOR('',#331,1.);
#86=VECTOR('',#334,1.);
#87=VECTOR('',#338,1.);
#88=VECTOR('',#341,1.);
#89=VECTOR('',#344,1.);
#90=VECTOR('',#346,1.);
#91=VECTOR('',#347,1.);
#92=VECTOR('',#350,1.);
#93=VECTOR('',#354,1.);
#94=VECTOR('',#355,1.);
#95=VECTOR('',#358,1.);
#96=VECTOR('',#362,1.);
#97=VECTOR('',#363,1.);
#98=VECTOR('',#366,1.);
#99=VECTOR('',#370,1.);
#100=LINE('',#373,#76);
#101=LINE('',#378,#77);
#102=LINE('',#381,#78);
#103=LINE('',#386,#79);
#104=LINE('',#390,#80);
#105=LINE('',#394,#81);
#106=LINE('',#398,#82);
#107=LINE('',#402,#83);
#108=LINE('',#404,#84);
#109=LINE('',#406,#85);
#110=LINE('',#408,#86);
#111=LINE('',#412,#87);
#112=LINE('',#414,#88);
#113=LINE('',#418,#89);
#114=LINE('',#420,#90);
#115=LINE('',#422,#91);
#116=LINE('',#424,#92);
#117=LINE('',#428,#93);
#118=LINE('',#430,#94);
#119=LINE('',#432,#95);
#120=LINE('',#436,#96);
#121=LINE('',#438,#97);
#122=LINE('',#440,#98);
#123=LINE('',#444,#99);
#124=EDGE_CURVE('',#52,#53,#100,.T.);
#125=EDGE_CURVE('',#53,#54,#40,.T.);
#126=EDGE_CURVE('',#54,#55,#101,.T.);
#127=EDGE_CURVE('',#55,#52,#41,.T.);
#128=EDGE_CURVE('',#56,#57,#102,.T.);
#129=EDGE_CURVE('',#57,#58,#42,.T.);
#130=EDGE_CURVE('',#58,#59,#103,.T.);
#131=EDGE_CURVE('',#59,#60,#43,.T.);
#132=EDGE_CURVE('',#60,#61,#104,.T.);
#133=EDGE_CURVE('',#61,#62,#44,.T.);
#134=EDGE_CURVE('',#62,#63,#105,.T.);
#135=EDGE_CURVE('',#63,#56,#45,.T.);
#136=EDGE_CURVE('',#64,#53,#106,.T.);
#137=EDGE_CURVE('',#65,#64,#46,.T.);
#138=EDGE_CURVE('',#54,#65,#107,.T.);
#139=EDGE_CURVE('',#66,#64,#108,.T.);
#140=EDGE_CURVE('',#52,#66,#109,.T.);
#141=EDGE_CURVE('',#67,#55,#110,.T.);
#142=EDGE_CURVE('',#66,#67,#47,.T.);
#143=EDGE_CURVE('',#65,#67,#111,.T.);
#144=EDGE_CURVE('',#57,#68,#112,.T.);
#145=EDGE_CURVE('',#68,#69,#48,.T.);
#146=EDGE_CURVE('',#69,#58,#113,.T.);
#147=EDGE_CURVE('',#70,#56,#114,.T.);
#148=EDGE_CURVE('',#68,#70,#115,.T.);
#149=EDGE_CURVE('',#63,#71,#116,.T.);
#150=EDGE_CURVE('',#71,#70,#49,.T.);
#151=EDGE_CURVE('',#72,#62,#117,.T.);
#152=EDGE_CURVE('',#71,#72,#118,.T.);
#153=EDGE_CURVE('',#61,#73,#119,.T.);
#154=EDGE_CURVE('',#73,#72,#50,.T.);
#155=EDGE_CURVE('',#74,#60,#120,.T.);
#156=EDGE_CURVE('',#73,#74,#121,.T.);
#157=EDGE_CURVE('',#59,#75,#122,.T.);
#158=EDGE_CURVE('',#75,#74,#51,.T.);
#159=EDGE_CURVE('',#75,#69,#123,.T.);
#160=ORIENTED_EDGE('',*,*,#124,.T.);
#161=ORIENTED_EDGE('',*,*,#125,.T.);
#162=ORIENTED_EDGE('',*,*,#126,.T.);
#163=ORIENTED_EDGE('',*,*,#127,.T.);
#164=ORIENTED_EDGE('',*,*,#128,.T.);
#165=ORIENTED_EDGE('',*,*,#129,.T.);
#166=ORIENTED_EDGE('',*,*,#130,.T.);
#167=ORIENTED_EDGE('',*,*,#131,.T.);
#168=ORIENTED_EDGE('',*,*,#132,.T.);
#169=ORIENTED_EDGE('',*,*,#133,.T.);
#170=ORIENTED_EDGE('',*,*,#134,.T.);
#171=ORIENTED_EDGE('',*,*,#135,.T.);
#172=ORIENTED_EDGE('',*,*,#136,.F.);
#173=ORIENTED_EDGE('',*,*,#137,.F.);
#174=ORIENTED_EDGE('',*,*,#138,.F.);
#175=ORIENTED_EDGE('',*,*,#125,.F.);
#176=ORIENTED_EDGE('',*,*,#139,.T.);
#177=ORIENTED_EDGE('',*,*,#136,.T.);
#178=ORIENTED_EDGE('',*,*,#124,.F.);
#179=ORIENTED_EDGE('',*,*,#140,.T.);
#180=ORIENTED_EDGE('',*,*,#141,.F.);
#181=ORIENTED_EDGE('',*,*,#142,.F.);
#182=ORIENTED_EDGE('',*,*,#140,.F.);
#183=ORIENTED_EDGE('',*,*,#127,.F.);
#184=ORIENTED_EDGE('',*,*,#143,.T.);
#185=ORIENTED_EDGE('',*,*,#141,.T.);
#186=ORIENTED_EDGE('',*,*,#126,.F.);
#187=ORIENTED_EDGE('',*,*,#138,.T.);
#188=ORIENTED_EDGE('',*,*,#129,.F.);
#189=ORIENTED_EDGE('',*,*,#144,.T.);
#190=ORIENTED_EDGE('',*,*,#145,.T.);
#191=ORIENTED_EDGE('',*,*,#146,.T.);
#192=ORIENTED_EDGE('',*,*,#147,.F.);
#193=ORIENTED_EDGE('',*,*,#148,.F.);
#194=ORIENTED_EDGE('',*,*,#144,.F.);
#195=ORIENTED_EDGE('',*,*,#128,.F.);
#196=ORIENTED_EDGE('',*,*,#135,.F.);
#197=ORIENTED_EDGE('',*,*,#149,.T.);
#198=ORIENTED_EDGE('',*,*,#150,.T.);
#199=ORIENTED_EDGE('',*,*,#147,.T.);
#200=ORIENTED_EDGE('',*,*,#151,.F.);
#201=ORIENTED_EDGE('',*,*,#152,.F.);
#202=ORIENTED_EDGE('',*,*,#149,.F.);
#203=ORIENTED_EDGE('',*,*,#134,.F.);
#204=ORIENTED_EDGE('',*,*,#133,.F.);
#205=ORIENTED_EDGE('',*,*,#153,.T.);
#206=ORIENTED_EDGE('',*,*,#154,.T.);
#207=ORIENTED_EDGE('',*,*,#151,.T.);
#208=ORIENTED_EDGE('',*,*,#155,.F.);
#209=ORIENTED_EDGE('',*,*,#156,.F.);
#210=ORIENTED_EDGE('',*,*,#153,.F.);
#211=ORIENTED_EDGE('',*,*,#132,.F.);
#212=ORIENTED_EDGE('',*,*,#131,.F.);
#213=ORIENTED_EDGE('',*,*,#157,.T.);
#214=ORIENTED_EDGE('',*,*,#158,.T.);
#215=ORIENTED_EDGE('',*,*,#155,.T.);
#216=ORIENTED_EDGE('',*,*,#157,.F.);
#217=ORIENTED_EDGE('',*,*,#130,.F.);
#218=ORIENTED_EDGE('',*,*,#146,.F.);
#219=ORIENTED_EDGE('',*,*,#159,.F.);
#220=ORIENTED_EDGE('',*,*,#143,.F.);
#221=ORIENTED_EDGE('',*,*,#137,.T.);
#222=ORIENTED_EDGE('',*,*,#139,.F.);
#223=ORIENTED_EDGE('',*,*,#142,.T.);
#224=ORIENTED_EDGE('',*,*,#158,.F.);
#225=ORIENTED_EDGE('',*,*,#159,.T.);
#226=ORIENTED_EDGE('',*,*,#145,.F.);
#227=ORIENTED_EDGE('',*,*,#148,.T.);
#228=ORIENTED_EDGE('',*,*,#150,.F.);
#229=ORIENTED_EDGE('',*,*,#152,.T.);
#230=ORIENTED_EDGE('',*,*,#154,.F.);
#231=ORIENTED_EDGE('',*,*,#156,.T.);
#232=EDGE_LOOP('',(#160,#161,#162,#163));
#233=EDGE_LOOP('',(#164,#165,#166,#167,#168,#169,#170,#171));
#234=EDGE_LOOP('',(#172,#173,#174,#175));
#235=EDGE_LOOP('',(#176,#177,#178,#179));
#236=EDGE_LOOP('',(#180,#181,#182,#183));
#237=EDGE_LOOP('',(#184,#185,#186,#187));
#238=EDGE_LOOP('',(#188,#189,#190,#191));
#239=EDGE_LOOP('',(#192,#193,#194,#195));
#240=EDGE_LOOP('',(#196,#197,#198,#199));
#241=EDGE_LOOP('',(#200,#201,#202,#203));
#242=EDGE_LOOP('',(#204,#205,#206,#207));
#243=EDGE_LOOP('',(#208,#209,#210,#211));
#244=EDGE_LOOP('',(#212,#213,#214,#215));
#245=EDGE_LOOP('',(#216,#217,#218,#219));
#246=EDGE_LOOP('',(#220,#221,#222,#223));
#247=EDGE_LOOP('',(#224,#225,#226,#227,#228,#229,#230,#231));
#248=FACE_BOUND('',#232,.T.);
#249=FACE_BOUND('',#233,.T.);
#250=FACE_BOUND('',#234,.T.);
#251=FACE_BOUND('',#235,.T.);
#252=FACE_BOUND('',#236,.T.);
#253=FACE_BOUND('',#237,.T.);
#254=FACE_BOUND('',#238,.T.);
#255=FACE_BOUND('',#239,.T.);
#256=FACE_BOUND('',#240,.T.);
#257=FACE_BOUND('',#241,.T.);
#258=FACE_BOUND('',#242,.T.);
#259=FACE_BOUND('',#243,.T.);
#260=FACE_BOUND('',#244,.T.);
#261=FACE_BOUND('',#245,.T.);
#262=FACE_BOUND('',#246,.T.);
#263=FACE_BOUND('',#247,.T.);
#264=ADVANCED_FACE('',(#248,#249),#446,.T.);
#265=ADVANCED_FACE('',(#250),#34,.F.);
#266=ADVANCED_FACE('',(#251),#447,.T.);
#267=ADVANCED_FACE('',(#252),#35,.F.);
#268=ADVANCED_FACE('',(#253),#448,.T.);
#269=ADVANCED_FACE('',(#254),#36,.T.);
#270=ADVANCED_FACE('',(#255),#449,.F.);
#271=ADVANCED_FACE('',(#256),#37,.T.);
#272=ADVANCED_FACE('',(#257),#450,.F.);
#273=ADVANCED_FACE('',(#258),#38,.T.);
#274=ADVANCED_FACE('',(#259),#451,.F.);
#275=ADVANCED_FACE('',(#260),#39,.T.);
#276=ADVANCED_FACE('',(#261),#452,.F.);
#277=ADVANCED_FACE('',(#262,#263),#453,.F.);
#278=AXIS2_PLACEMENT_3D('',#372,#304,$);
#279=AXIS2_PLACEMENT_3D('',#376,#306,#307);
#280=AXIS2_PLACEMENT_3D('',#380,#309,#310);
#281=AXIS2_PLACEMENT_3D('',#384,#312,#313);
#282=AXIS2_PLACEMENT_3D('',#388,#315,#316);
#283=AXIS2_PLACEMENT_3D('',#392,#318,#319);
#284=AXIS2_PLACEMENT_3D('',#396,#321,#322);
#285=AXIS2_PLACEMENT_3D('',#397,#323,#324);
#286=AXIS2_PLACEMENT_3D('',#400,#326,#327);
#287=AXIS2_PLACEMENT_3D('',#403,#329,$);
#288=AXIS2_PLACEMENT_3D('',#407,#332,#333);
#289=AXIS2_PLACEMENT_3D('',#410,#335,#336);
#290=AXIS2_PLACEMENT_3D('',#411,#337,$);
#291=AXIS2_PLACEMENT_3D('',#413,#339,#340);
#292=AXIS2_PLACEMENT_3D('',#416,#342,#343);
#293=AXIS2_PLACEMENT_3D('',#419,#345,$);
#294=AXIS2_PLACEMENT_3D('',#423,#348,#349);
#295=AXIS2_PLACEMENT_3D('',#426,#351,#352);
#296=AXIS2_PLACEMENT_3D('',#427,#353,$);
#297=AXIS2_PLACEMENT_3D('',#431,#356,#357);
#298=AXIS2_PLACEMENT_3D('',#434,#359,#360);
#299=AXIS2_PLACEMENT_3D('',#435,#361,$);
#300=AXIS2_PLACEMENT_3D('',#439,#364,#365);
#301=AXIS2_PLACEMENT_3D('',#442,#367,#368);
#302=AXIS2_PLACEMENT_3D('',#443,#369,$);
#303=AXIS2_PLACEMENT_3D('',#445,#371,$);
#304=DIRECTION('',(0.,0.,-1.));
#305=DIRECTION('',(0.,-1.,0.));
#306=DIRECTION('',(0.,0.,1.));
#307=DIRECTION('',(-4.,0.,0.));
#308=DIRECTION('',(0.,1.,0.));
#309=DIRECTION('',(0.,0.,1.));
#310=DIRECTION('',(-4.,0.,0.));
#311=DIRECTION('',(1.,0.,0.));
#312=DIRECTION('',(0.,0.,-1.));
#313=DIRECTION('',(-2.,0.,0.));
#314=DIRECTION('',(0.,-1.,0.));
#315=DIRECTION('',(0.,0.,-1.));
#316=DIRECTION('',(-2.,0.,0.));
#317=DIRECTION('',(-1.,0.,0.));
#318=DIRECTION('',(0.,0.,-1.));
#319=DIRECTION('',(-2.,0.,0.));
#320=DIRECTION('',(0.,1.,0.));
#321=DIRECTION('',(0.,0.,-1.));
#322=DIRECTION('',(-2.,0.,0.));
#323=DIRECTION('',(0.,0.,-1.));
#324=DIRECTION('',(-4.,0.,0.));
#325=DIRECTION('',(0.,0.,-1.));
#326=DIRECTION('',(0.,0.,-1.));
#327=DIRECTION('',(-4.,0.,0.));
#328=DIRECTION('',(0.,0.,1.));
#329=DIRECTION('',(1.,0.,0.));
#330=DIRECTION('',(0.,-1.,0.));
#331=DIRECTION('',(0.,0.,1.));
#332=DIRECTION('',(0.,0.,-1.));
#333=DIRECTION('',(-4.,0.,0.));
#334=DIRECTION('',(0.,0.,-1.));
#335=DIRECTION('',(0.,0.,-1.));
#336=DIRECTION('',(-4.,0.,0.));
#337=DIRECTION('',(-1.,0.,0.));
#338=DIRECTION('',(0.,1.,0.));
#339=DIRECTION('',(0.,0.,-1.));
#340=DIRECTION('',(-2.,0.,0.));
#341=DIRECTION('',(0.,0.,1.));
#342=DIRECTION('',(0.,0.,-1.));
#343=DIRECTION('',(-2.,0.,0.));
#344=DIRECTION('',(0.,0.,-1.));
#345=DIRECTION('',(0.,-1.,0.));
#346=DIRECTION('',(0.,0.,-1.));
#347=DIRECTION('',(-1.,0.,0.));
#348=DIRECTION('',(0.,0.,-1.));
#349=DIRECTION('',(-2.,0.,0.));
#350=DIRECTION('',(0.,0.,1.));
#351=DIRECTION('',(0.,0.,-1.));
#352=DIRECTION('',(-2.,0.,0.));
#353=DIRECTION('',(1.,0.,0.));
#354=DIRECTION('',(0.,0.,-1.));
#355=DIRECTION('',(0.,-1.,0.));
#356=DIRECTION('',(0.,0.,-1.));
#357=DIRECTION('',(-2.,0.,0.));
#358=DIRECTION('',(0.,0.,1.));
#359=DIRECTION('',(0.,0.,-1.));
#360=DIRECTION('',(-2.,0.,0.));
#361=DIRECTION('',(0.,1.,0.));
#362=DIRECTION('',(0.,0.,-1.));
#363=DIRECTION('',(1.,0.,0.));
#364=DIRECTION('',(0.,0.,-1.));
#365=DIRECTION('',(-2.,0.,0.));
#366=DIRECTION('',(0.,0.,1.));
#367=DIRECTION('',(0.,0.,-1.));
#368=DIRECTION('',(-2.,0.,0.));
#369=DIRECTION('',(-1.,0.,0.));
#370=DIRECTION('',(0.,1.,0.));
#371=DIRECTION('',(0.,0.,-1.));
#372=CARTESIAN_POINT('',(0.,0.,0.));
#373=CARTESIAN_POINT('',(-4.,6.,0.));
#374=CARTESIAN_POINT('',(-4.,6.,0.));
#375=CARTESIAN_POINT('',(-4.,-6.,0.));
#376=CARTESIAN_POINT('',(0.,-6.,0.));
#377=CARTESIAN_POINT('',(4.,-6.,0.));
#378=CARTESIAN_POINT('',(4.,-6.,0.));
#379=CARTESIAN_POINT('',(4.,6.,0.));
#380=CARTESIAN_POINT('',(0.,6.,0.));
#381=CARTESIAN_POINT('',(-6.95,12.9,0.));
#382=CARTESIAN_POINT('',(-6.95,12.9,0.));
#383=CARTESIAN_POINT('',(6.95,12.9,0.));
#384=CARTESIAN_POINT('',(6.95,10.9,0.));
#385=CARTESIAN_POINT('',(8.95,10.9,0.));
#386=CARTESIAN_POINT('',(8.95,10.9,0.));
#387=CARTESIAN_POINT('',(8.95,-10.9,0.));
#388=CARTESIAN_POINT('',(6.95,-10.9,0.));
#389=CARTESIAN_POINT('',(6.95,-12.9,0.));
#390=CARTESIAN_POINT('',(6.95,-12.9,0.));
#391=CARTESIAN_POINT('',(-6.95,-12.9,0.));
#392=CARTESIAN_POINT('',(-6.95,-10.9,0.));
#393=CARTESIAN_POINT('',(-8.95,-10.9,0.));
#394=CARTESIAN_POINT('',(-8.95,-10.9,0.));
#395=CARTESIAN_POINT('',(-8.95,10.9,0.));
#396=CARTESIAN_POINT('',(-6.95,10.9,0.));
#397=CARTESIAN_POINT('',(0.,-6.,1.));
#398=CARTESIAN_POINT('',(-4.,-6.,1.));
#399=CARTESIAN_POINT('',(-4.,-6.,1.));
#400=CARTESIAN_POINT('',(0.,-6.,1.));
#401=CARTESIAN_POINT('',(4.,-6.,1.));
#402=CARTESIAN_POINT('',(4.,-6.,0.));
#403=CARTESIAN_POINT('',(-4.,6.,1.));
#404=CARTESIAN_POINT('',(-4.,6.,1.));
#405=CARTESIAN_POINT('',(-4.,6.,1.));
#406=CARTESIAN_POINT('',(-4.,6.,0.));
#407=CARTESIAN_POINT('',(0.,6.,1.));
#408=CARTESIAN_POINT('',(4.,6.,1.));
#409=CARTESIAN_POINT('',(4.,6.,1.));
#410=CARTESIAN_POINT('',(0.,6.,1.));
#411=CARTESIAN_POINT('',(4.,6.,1.));
#412=CARTESIAN_POINT('',(4.,-6.,1.));
#413=CARTESIAN_POINT('',(6.95,10.9,1.));
#414=CARTESIAN_POINT('',(6.95,12.9,0.));
#415=CARTESIAN_POINT('',(6.95,12.9,1.));
#416=CARTESIAN_POINT('',(6.95,10.9,1.));
#417=CARTESIAN_POINT('',(8.95,10.9,1.));
#418=CARTESIAN_POINT('',(8.95,10.9,1.));
#419=CARTESIAN_POINT('',(8.95,12.9,1.));
#420=CARTESIAN_POINT('',(-6.95,12.9,1.));
#421=CARTESIAN_POINT('',(-6.95,12.9,1.));
#422=CARTESIAN_POINT('',(6.95,12.9,1.));
#423=CARTESIAN_POINT('',(-6.95,10.9,1.));
#424=CARTESIAN_POINT('',(-8.95,10.9,0.));
#425=CARTESIAN_POINT('',(-8.95,10.9,1.));
#426=CARTESIAN_POINT('',(-6.95,10.9,1.));
#427=CARTESIAN_POINT('',(-8.95,12.9,1.));
#428=CARTESIAN_POINT('',(-8.95,-10.9,1.));
#429=CARTESIAN_POINT('',(-8.95,-10.9,1.));
#430=CARTESIAN_POINT('',(-8.95,10.9,1.));
#431=CARTESIAN_POINT('',(-6.95,-10.9,1.));
#432=CARTESIAN_POINT('',(-6.95,-12.9,0.));
#433=CARTESIAN_POINT('',(-6.95,-12.9,1.));
#434=CARTESIAN_POINT('',(-6.95,-10.9,1.));
#435=CARTESIAN_POINT('',(8.95,-12.9,1.));
#436=CARTESIAN_POINT('',(6.95,-12.9,1.));
#437=CARTESIAN_POINT('',(6.95,-12.9,1.));
#438=CARTESIAN_POINT('',(-6.95,-12.9,1.));
#439=CARTESIAN_POINT('',(6.95,-10.9,1.));
#440=CARTESIAN_POINT('',(8.95,-10.9,0.));
#441=CARTESIAN_POINT('',(8.95,-10.9,1.));
#442=CARTESIAN_POINT('',(6.95,-10.9,1.));
#443=CARTESIAN_POINT('',(8.95,12.9,1.));
#444=CARTESIAN_POINT('',(8.95,-10.9,1.));
#445=CARTESIAN_POINT('',(0.,0.,1.));
#446=PLANE('',#278);
#447=PLANE('',#287);
#448=PLANE('',#290);
#449=PLANE('',#293);
#450=PLANE('',#296);
#451=PLANE('',#299);
#452=PLANE('',#302);
#453=PLANE('',#303);
#454=CLOSED_SHELL('',(#264,#265,#266,#267,#268,#269,#270,#271,#272,#273,
#274,#275,#276,#277));
#455=MANIFOLD_SOLID_BREP('',#454);
#456=ADVANCED_BREP_SHAPE_REPRESENTATION('',(#455),#33);
ENDSEC;
END-ISO-10303-21;
