ISO-10303-21;
HEADER;

/* File generated by Alibre Version V23 */

FILE_DESCRIPTION(('HOOPS Exchange Step'),'2;1');

FILE_NAME('C:\\Users\\Gebruiker\\AppData\\Local\\Temp\\Alibre Design\\export-D8CFD339-3A09-4FAD-8617-B4F4C2E05BC9.stp',
'2022-01-19T13:53:21+01:00',
('Engineering'),
('Alibre'),
'HOOPS Exchange 2021.0',
'Alibre',
'Unknown authorisation');

FILE_SCHEMA( ('AP242_MANAGED_MODEL_BASED_3D_ENGINEERING_MIM_LF {1 0 10303 442 1 1 4 }') );

ENDSEC;

DATA;
#3=(NAMED_UNIT(*)PLANE_ANGLE_UNIT()SI_UNIT($,.RADIAN.));
#4=PLANE_ANGLE_MEASURE_WITH_UNIT(PLANE_ANGLE_MEASURE(0.0174532925),#3);
#5=(CONVERSION_BASED_UNIT('DEGREE',#4)NAMED_UNIT(#6)PLANE_ANGLE_UNIT());
#6=DIMENSIONAL_EXPONENTS(0.,0.,0.,0.,0.,0.,0.);
#7=(NAMED_UNIT(*)SI_UNIT($,.STERADIAN.)SOLID_ANGLE_UNIT());
#8=(LENGTH_UNIT()NAMED_UNIT(*)SI_UNIT(.MILLI.,.METRE.));
#9=UNCERTAINTY_MEASURE_WITH_UNIT(LENGTH_MEASURE(1.000000E-06),#8,'DISTANCE_ACCURACY_VALUE','Maximum Tolerance applied to model');
#10=(GEOMETRIC_REPRESENTATION_CONTEXT(3)GLOBAL_UNCERTAINTY_ASSIGNED_CONTEXT((#9))GLOBAL_UNIT_ASSIGNED_CONTEXT((#8,#5,#7))REPRESENTATION_CONTEXT('','5808 NBR Gasket for GSA20'));
#12=CARTESIAN_POINT('',(0.,0.,0.));
#13=DIRECTION('',(0.,0.,1.));
#14=DIRECTION('',(1.,0.,0.));
#15=AXIS2_PLACEMENT_3D('',#12,#13,#14);
#27=CARTESIAN_POINT('',(0.,0.,0.));
#28=DIRECTION('',(0.,0.,-1.));
#29=DIRECTION('',(-1.,0.,0.));
#30=AXIS2_PLACEMENT_3D('',#27,#28,#29);
#31=PLANE('',#30);
#32=CARTESIAN_POINT('',(-4.,6.,0.));
#33=VERTEX_POINT('',#32);
#34=CARTESIAN_POINT('',(-4.,-6.,0.));
#35=VERTEX_POINT('',#34);
#36=CARTESIAN_POINT('',(-4.,6.,0.));
#37=DIRECTION('',(0.,-1.,0.));
#38=VECTOR('',#37,12.);
#39=LINE('',#36,#38);
#40=EDGE_CURVE('',#33,#35,#39,.T.);
#41=ORIENTED_EDGE('',*,*,#40,.T.);
#42=CARTESIAN_POINT('',(4.,-6.,0.));
#43=VERTEX_POINT('',#42);
#44=CARTESIAN_POINT('',(0.,-6.,0.));
#45=DIRECTION('',(0.,0.,1.));
#46=DIRECTION('',(-1.,0.,0.));
#47=AXIS2_PLACEMENT_3D('',#44,#45,#46);
#48=CIRCLE('',#47,4.);
#49=EDGE_CURVE('',#35,#43,#48,.T.);
#50=ORIENTED_EDGE('',*,*,#49,.T.);
#51=CARTESIAN_POINT('',(4.,6.,0.));
#52=VERTEX_POINT('',#51);
#53=CARTESIAN_POINT('',(4.,-6.,0.));
#54=DIRECTION('',(0.,1.,0.));
#55=VECTOR('',#54,12.);
#56=LINE('',#53,#55);
#57=EDGE_CURVE('',#43,#52,#56,.T.);
#58=ORIENTED_EDGE('',*,*,#57,.T.);
#59=CARTESIAN_POINT('',(0.,6.,0.));
#60=DIRECTION('',(0.,0.,1.));
#61=DIRECTION('',(-1.,0.,0.));
#62=AXIS2_PLACEMENT_3D('',#59,#60,#61);
#63=CIRCLE('',#62,4.);
#64=EDGE_CURVE('',#52,#33,#63,.T.);
#65=ORIENTED_EDGE('',*,*,#64,.T.);
#66=EDGE_LOOP('',(#41,#50,#58,#65));
#67=FACE_BOUND('',#66,.T.);
#68=CARTESIAN_POINT('',(-6.95,12.9,0.));
#69=VERTEX_POINT('',#68);
#70=CARTESIAN_POINT('',(6.95,12.9,0.));
#71=VERTEX_POINT('',#70);
#72=CARTESIAN_POINT('',(-6.95,12.9,0.));
#73=DIRECTION('',(1.,0.,-0.));
#74=VECTOR('',#73,13.9);
#75=LINE('',#72,#74);
#76=EDGE_CURVE('',#69,#71,#75,.T.);
#77=ORIENTED_EDGE('',*,*,#76,.T.);
#78=CARTESIAN_POINT('',(8.95,10.9,0.));
#79=VERTEX_POINT('',#78);
#80=CARTESIAN_POINT('',(6.95,10.9,0.));
#81=DIRECTION('',(0.,0.,-1.));
#82=DIRECTION('',(-1.,0.,0.));
#83=AXIS2_PLACEMENT_3D('',#80,#81,#82);
#84=CIRCLE('',#83,2.);
#85=EDGE_CURVE('',#71,#79,#84,.T.);
#86=ORIENTED_EDGE('',*,*,#85,.T.);
#87=CARTESIAN_POINT('',(8.95,-10.9,0.));
#88=VERTEX_POINT('',#87);
#89=CARTESIAN_POINT('',(8.95,10.9,0.));
#90=DIRECTION('',(0.,-1.,0.));
#91=VECTOR('',#90,21.8);
#92=LINE('',#89,#91);
#93=EDGE_CURVE('',#79,#88,#92,.T.);
#94=ORIENTED_EDGE('',*,*,#93,.T.);
#95=CARTESIAN_POINT('',(6.95,-12.9,0.));
#96=VERTEX_POINT('',#95);
#97=CARTESIAN_POINT('',(6.95,-10.9,0.));
#98=DIRECTION('',(0.,0.,-1.));
#99=DIRECTION('',(-1.,0.,0.));
#100=AXIS2_PLACEMENT_3D('',#97,#98,#99);
#101=CIRCLE('',#100,2.);
#102=EDGE_CURVE('',#88,#96,#101,.T.);
#103=ORIENTED_EDGE('',*,*,#102,.T.);
#104=CARTESIAN_POINT('',(-6.95,-12.9,0.));
#105=VERTEX_POINT('',#104);
#106=CARTESIAN_POINT('',(6.95,-12.9,0.));
#107=DIRECTION('',(-1.,0.,0.));
#108=VECTOR('',#107,13.9);
#109=LINE('',#106,#108);
#110=EDGE_CURVE('',#96,#105,#109,.T.);
#111=ORIENTED_EDGE('',*,*,#110,.T.);
#112=CARTESIAN_POINT('',(-8.95,-10.9,0.));
#113=VERTEX_POINT('',#112);
#114=CARTESIAN_POINT('',(-6.95,-10.9,0.));
#115=DIRECTION('',(0.,0.,-1.));
#116=DIRECTION('',(-1.,0.,0.));
#117=AXIS2_PLACEMENT_3D('',#114,#115,#116);
#118=CIRCLE('',#117,2.);
#119=EDGE_CURVE('',#105,#113,#118,.T.);
#120=ORIENTED_EDGE('',*,*,#119,.T.);
#121=CARTESIAN_POINT('',(-8.95,10.9,0.));
#122=VERTEX_POINT('',#121);
#123=CARTESIAN_POINT('',(-8.95,-10.9,0.));
#124=DIRECTION('',(0.,1.,0.));
#125=VECTOR('',#124,21.8);
#126=LINE('',#123,#125);
#127=EDGE_CURVE('',#113,#122,#126,.T.);
#128=ORIENTED_EDGE('',*,*,#127,.T.);
#129=CARTESIAN_POINT('',(-6.95,10.9,0.));
#130=DIRECTION('',(0.,0.,-1.));
#131=DIRECTION('',(-1.,0.,0.));
#132=AXIS2_PLACEMENT_3D('',#129,#130,#131);
#133=CIRCLE('',#132,2.);
#134=EDGE_CURVE('',#122,#69,#133,.T.);
#135=ORIENTED_EDGE('',*,*,#134,.T.);
#136=EDGE_LOOP('',(#77,#86,#94,#103,#111,#120,#128,#135));
#137=FACE_BOUND('',#136,.T.);
#138=ADVANCED_FACE('NONE',(#67,#137),#31,.T.);
#139=CARTESIAN_POINT('',(0.,-6.,1.));
#140=DIRECTION('',(0.,0.,-1.));
#141=DIRECTION('',(-1.,0.,0.));
#142=AXIS2_PLACEMENT_3D('',#139,#140,#141);
#143=CYLINDRICAL_SURFACE('',#142,4.);
#144=CARTESIAN_POINT('',(-4.,-6.,1.));
#145=VERTEX_POINT('',#144);
#146=CARTESIAN_POINT('',(-4.,-6.,1.));
#147=DIRECTION('',(0.,0.,-1.));
#148=VECTOR('',#147,1.);
#149=LINE('',#146,#148);
#150=EDGE_CURVE('',#145,#35,#149,.T.);
#151=ORIENTED_EDGE('',*,*,#150,.F.);
#152=CARTESIAN_POINT('',(4.,-6.,1.));
#153=VERTEX_POINT('',#152);
#154=CARTESIAN_POINT('',(0.,-6.,1.));
#155=DIRECTION('',(0.,0.,-1.));
#156=DIRECTION('',(-1.,0.,0.));
#157=AXIS2_PLACEMENT_3D('',#154,#155,#156);
#158=CIRCLE('',#157,4.);
#159=EDGE_CURVE('',#153,#145,#158,.T.);
#160=ORIENTED_EDGE('',*,*,#159,.F.);
#161=CARTESIAN_POINT('',(4.,-6.,0.));
#162=DIRECTION('',(0.,0.,1.));
#163=VECTOR('',#162,1.);
#164=LINE('',#161,#163);
#165=EDGE_CURVE('',#43,#153,#164,.T.);
#166=ORIENTED_EDGE('',*,*,#165,.F.);
#167=ORIENTED_EDGE('',*,*,#49,.F.);
#168=EDGE_LOOP('',(#151,#160,#166,#167));
#169=FACE_BOUND('',#168,.T.);
#170=ADVANCED_FACE('NONE',(#169),#143,.F.);
#171=CARTESIAN_POINT('',(-4.,6.,1.));
#172=DIRECTION('',(1.,0.,0.));
#173=DIRECTION('',(0.,1.,0.));
#174=AXIS2_PLACEMENT_3D('',#171,#172,#173);
#175=PLANE('',#174);
#176=CARTESIAN_POINT('',(-4.,6.,1.));
#177=VERTEX_POINT('',#176);
#178=CARTESIAN_POINT('',(-4.,6.,1.));
#179=DIRECTION('',(0.,-1.,0.));
#180=VECTOR('',#179,12.);
#181=LINE('',#178,#180);
#182=EDGE_CURVE('',#177,#145,#181,.T.);
#183=ORIENTED_EDGE('',*,*,#182,.T.);
#184=ORIENTED_EDGE('',*,*,#150,.T.);
#185=ORIENTED_EDGE('',*,*,#40,.F.);
#186=CARTESIAN_POINT('',(-4.,6.,0.));
#187=DIRECTION('',(0.,0.,1.));
#188=VECTOR('',#187,1.);
#189=LINE('',#186,#188);
#190=EDGE_CURVE('',#33,#177,#189,.T.);
#191=ORIENTED_EDGE('',*,*,#190,.T.);
#192=EDGE_LOOP('',(#183,#184,#185,#191));
#193=FACE_BOUND('',#192,.T.);
#194=ADVANCED_FACE('NONE',(#193),#175,.T.);
#195=CARTESIAN_POINT('',(-0.,6.,1.));
#196=DIRECTION('',(0.,0.,-1.));
#197=DIRECTION('',(-1.,0.,0.));
#198=AXIS2_PLACEMENT_3D('',#195,#196,#197);
#199=CYLINDRICAL_SURFACE('',#198,4.);
#200=CARTESIAN_POINT('',(4.,6.,1.));
#201=VERTEX_POINT('',#200);
#202=CARTESIAN_POINT('',(4.,6.,1.));
#203=DIRECTION('',(0.,0.,-1.));
#204=VECTOR('',#203,1.);
#205=LINE('',#202,#204);
#206=EDGE_CURVE('',#201,#52,#205,.T.);
#207=ORIENTED_EDGE('',*,*,#206,.F.);
#208=CARTESIAN_POINT('',(-0.,6.,1.));
#209=DIRECTION('',(0.,0.,-1.));
#210=DIRECTION('',(-1.,0.,0.));
#211=AXIS2_PLACEMENT_3D('',#208,#209,#210);
#212=CIRCLE('',#211,4.);
#213=EDGE_CURVE('',#177,#201,#212,.T.);
#214=ORIENTED_EDGE('',*,*,#213,.F.);
#215=ORIENTED_EDGE('',*,*,#190,.F.);
#216=ORIENTED_EDGE('',*,*,#64,.F.);
#217=EDGE_LOOP('',(#207,#214,#215,#216));
#218=FACE_BOUND('',#217,.T.);
#219=ADVANCED_FACE('NONE',(#218),#199,.F.);
#220=CARTESIAN_POINT('',(4.,6.,1.));
#221=DIRECTION('',(-1.,0.,0.));
#222=DIRECTION('',(0.,-1.,0.));
#223=AXIS2_PLACEMENT_3D('',#220,#221,#222);
#224=PLANE('',#223);
#225=CARTESIAN_POINT('',(4.,-6.,1.));
#226=DIRECTION('',(0.,1.,0.));
#227=VECTOR('',#226,12.);
#228=LINE('',#225,#227);
#229=EDGE_CURVE('',#153,#201,#228,.T.);
#230=ORIENTED_EDGE('',*,*,#229,.T.);
#231=ORIENTED_EDGE('',*,*,#206,.T.);
#232=ORIENTED_EDGE('',*,*,#57,.F.);
#233=ORIENTED_EDGE('',*,*,#165,.T.);
#234=EDGE_LOOP('',(#230,#231,#232,#233));
#235=FACE_BOUND('',#234,.T.);
#236=ADVANCED_FACE('NONE',(#235),#224,.T.);
#237=CARTESIAN_POINT('',(6.95,10.9,1.));
#238=DIRECTION('',(0.,0.,-1.));
#239=DIRECTION('',(-1.,0.,0.));
#240=AXIS2_PLACEMENT_3D('',#237,#238,#239);
#241=CYLINDRICAL_SURFACE('',#240,2.);
#242=ORIENTED_EDGE('',*,*,#85,.F.);
#243=CARTESIAN_POINT('',(6.95,12.9,1.));
#244=VERTEX_POINT('',#243);
#245=CARTESIAN_POINT('',(6.95,12.9,0.));
#246=DIRECTION('',(0.,0.,1.));
#247=VECTOR('',#246,1.);
#248=LINE('',#245,#247);
#249=EDGE_CURVE('',#71,#244,#248,.T.);
#250=ORIENTED_EDGE('',*,*,#249,.T.);
#251=CARTESIAN_POINT('',(8.95,10.9,1.));
#252=VERTEX_POINT('',#251);
#253=CARTESIAN_POINT('',(6.95,10.9,1.));
#254=DIRECTION('',(0.,0.,-1.));
#255=DIRECTION('',(-1.,0.,0.));
#256=AXIS2_PLACEMENT_3D('',#253,#254,#255);
#257=CIRCLE('',#256,2.);
#258=EDGE_CURVE('',#244,#252,#257,.T.);
#259=ORIENTED_EDGE('',*,*,#258,.T.);
#260=CARTESIAN_POINT('',(8.95,10.9,1.));
#261=DIRECTION('',(0.,0.,-1.));
#262=VECTOR('',#261,1.);
#263=LINE('',#260,#262);
#264=EDGE_CURVE('',#252,#79,#263,.T.);
#265=ORIENTED_EDGE('',*,*,#264,.T.);
#266=EDGE_LOOP('',(#242,#250,#259,#265));
#267=FACE_BOUND('',#266,.T.);
#268=ADVANCED_FACE('NONE',(#267),#241,.T.);
#269=CARTESIAN_POINT('',(8.95,12.9,1.));
#270=DIRECTION('',(0.,-1.,0.));
#271=DIRECTION('',(1.,0.,0.));
#272=AXIS2_PLACEMENT_3D('',#269,#270,#271);
#273=PLANE('',#272);
#274=CARTESIAN_POINT('',(-6.95,12.9,1.));
#275=VERTEX_POINT('',#274);
#276=CARTESIAN_POINT('',(-6.95,12.9,1.));
#277=DIRECTION('',(0.,0.,-1.));
#278=VECTOR('',#277,1.);
#279=LINE('',#276,#278);
#280=EDGE_CURVE('',#275,#69,#279,.T.);
#281=ORIENTED_EDGE('',*,*,#280,.F.);
#282=CARTESIAN_POINT('',(6.95,12.9,1.));
#283=DIRECTION('',(-1.,0.,0.));
#284=VECTOR('',#283,13.9);
#285=LINE('',#282,#284);
#286=EDGE_CURVE('',#244,#275,#285,.T.);
#287=ORIENTED_EDGE('',*,*,#286,.F.);
#288=ORIENTED_EDGE('',*,*,#249,.F.);
#289=ORIENTED_EDGE('',*,*,#76,.F.);
#290=EDGE_LOOP('',(#281,#287,#288,#289));
#291=FACE_BOUND('',#290,.T.);
#292=ADVANCED_FACE('NONE',(#291),#273,.F.);
#293=CARTESIAN_POINT('',(-6.95,10.9,1.));
#294=DIRECTION('',(0.,0.,-1.));
#295=DIRECTION('',(-1.,0.,0.));
#296=AXIS2_PLACEMENT_3D('',#293,#294,#295);
#297=CYLINDRICAL_SURFACE('',#296,2.);
#298=ORIENTED_EDGE('',*,*,#134,.F.);
#299=CARTESIAN_POINT('',(-8.95,10.9,1.));
#300=VERTEX_POINT('',#299);
#301=CARTESIAN_POINT('',(-8.95,10.9,0.));
#302=DIRECTION('',(0.,0.,1.));
#303=VECTOR('',#302,1.);
#304=LINE('',#301,#303);
#305=EDGE_CURVE('',#122,#300,#304,.T.);
#306=ORIENTED_EDGE('',*,*,#305,.T.);
#307=CARTESIAN_POINT('',(-6.95,10.9,1.));
#308=DIRECTION('',(0.,0.,-1.));
#309=DIRECTION('',(-1.,0.,0.));
#310=AXIS2_PLACEMENT_3D('',#307,#308,#309);
#311=CIRCLE('',#310,2.);
#312=EDGE_CURVE('',#300,#275,#311,.T.);
#313=ORIENTED_EDGE('',*,*,#312,.T.);
#314=ORIENTED_EDGE('',*,*,#280,.T.);
#315=EDGE_LOOP('',(#298,#306,#313,#314));
#316=FACE_BOUND('',#315,.T.);
#317=ADVANCED_FACE('NONE',(#316),#297,.T.);
#318=CARTESIAN_POINT('',(-8.95,12.9,1.));
#319=DIRECTION('',(1.,0.,0.));
#320=DIRECTION('',(0.,1.,0.));
#321=AXIS2_PLACEMENT_3D('',#318,#319,#320);
#322=PLANE('',#321);
#323=CARTESIAN_POINT('',(-8.95,-10.9,1.));
#324=VERTEX_POINT('',#323);
#325=CARTESIAN_POINT('',(-8.95,-10.9,1.));
#326=DIRECTION('',(0.,0.,-1.));
#327=VECTOR('',#326,1.);
#328=LINE('',#325,#327);
#329=EDGE_CURVE('',#324,#113,#328,.T.);
#330=ORIENTED_EDGE('',*,*,#329,.F.);
#331=CARTESIAN_POINT('',(-8.95,10.9,1.));
#332=DIRECTION('',(0.,-1.,0.));
#333=VECTOR('',#332,21.8);
#334=LINE('',#331,#333);
#335=EDGE_CURVE('',#300,#324,#334,.T.);
#336=ORIENTED_EDGE('',*,*,#335,.F.);
#337=ORIENTED_EDGE('',*,*,#305,.F.);
#338=ORIENTED_EDGE('',*,*,#127,.F.);
#339=EDGE_LOOP('',(#330,#336,#337,#338));
#340=FACE_BOUND('',#339,.T.);
#341=ADVANCED_FACE('NONE',(#340),#322,.F.);
#342=CARTESIAN_POINT('',(-6.95,-10.9,1.));
#343=DIRECTION('',(0.,0.,-1.));
#344=DIRECTION('',(-1.,0.,0.));
#345=AXIS2_PLACEMENT_3D('',#342,#343,#344);
#346=CYLINDRICAL_SURFACE('',#345,2.);
#347=ORIENTED_EDGE('',*,*,#119,.F.);
#348=CARTESIAN_POINT('',(-6.95,-12.9,1.));
#349=VERTEX_POINT('',#348);
#350=CARTESIAN_POINT('',(-6.95,-12.9,0.));
#351=DIRECTION('',(0.,0.,1.));
#352=VECTOR('',#351,1.);
#353=LINE('',#350,#352);
#354=EDGE_CURVE('',#105,#349,#353,.T.);
#355=ORIENTED_EDGE('',*,*,#354,.T.);
#356=CARTESIAN_POINT('',(-6.95,-10.9,1.));
#357=DIRECTION('',(0.,0.,-1.));
#358=DIRECTION('',(-1.,0.,0.));
#359=AXIS2_PLACEMENT_3D('',#356,#357,#358);
#360=CIRCLE('',#359,2.);
#361=EDGE_CURVE('',#349,#324,#360,.T.);
#362=ORIENTED_EDGE('',*,*,#361,.T.);
#363=ORIENTED_EDGE('',*,*,#329,.T.);
#364=EDGE_LOOP('',(#347,#355,#362,#363));
#365=FACE_BOUND('',#364,.T.);
#366=ADVANCED_FACE('NONE',(#365),#346,.T.);
#367=CARTESIAN_POINT('',(8.95,-12.9,1.));
#368=DIRECTION('',(0.,1.,0.));
#369=DIRECTION('',(-1.,0.,0.));
#370=AXIS2_PLACEMENT_3D('',#367,#368,#369);
#371=PLANE('',#370);
#372=CARTESIAN_POINT('',(6.95,-12.9,1.));
#373=VERTEX_POINT('',#372);
#374=CARTESIAN_POINT('',(6.95,-12.9,1.));
#375=DIRECTION('',(0.,0.,-1.));
#376=VECTOR('',#375,1.);
#377=LINE('',#374,#376);
#378=EDGE_CURVE('',#373,#96,#377,.T.);
#379=ORIENTED_EDGE('',*,*,#378,.F.);
#380=CARTESIAN_POINT('',(-6.95,-12.9,1.));
#381=DIRECTION('',(1.,0.,-0.));
#382=VECTOR('',#381,13.9);
#383=LINE('',#380,#382);
#384=EDGE_CURVE('',#349,#373,#383,.T.);
#385=ORIENTED_EDGE('',*,*,#384,.F.);
#386=ORIENTED_EDGE('',*,*,#354,.F.);
#387=ORIENTED_EDGE('',*,*,#110,.F.);
#388=EDGE_LOOP('',(#379,#385,#386,#387));
#389=FACE_BOUND('',#388,.T.);
#390=ADVANCED_FACE('NONE',(#389),#371,.F.);
#391=CARTESIAN_POINT('',(6.95,-10.9,1.));
#392=DIRECTION('',(0.,0.,-1.));
#393=DIRECTION('',(-1.,0.,0.));
#394=AXIS2_PLACEMENT_3D('',#391,#392,#393);
#395=CYLINDRICAL_SURFACE('',#394,2.);
#396=ORIENTED_EDGE('',*,*,#102,.F.);
#397=CARTESIAN_POINT('',(8.95,-10.9,1.));
#398=VERTEX_POINT('',#397);
#399=CARTESIAN_POINT('',(8.95,-10.9,0.));
#400=DIRECTION('',(0.,0.,1.));
#401=VECTOR('',#400,1.);
#402=LINE('',#399,#401);
#403=EDGE_CURVE('',#88,#398,#402,.T.);
#404=ORIENTED_EDGE('',*,*,#403,.T.);
#405=CARTESIAN_POINT('',(6.95,-10.9,1.));
#406=DIRECTION('',(0.,0.,-1.));
#407=DIRECTION('',(-1.,0.,0.));
#408=AXIS2_PLACEMENT_3D('',#405,#406,#407);
#409=CIRCLE('',#408,2.);
#410=EDGE_CURVE('',#398,#373,#409,.T.);
#411=ORIENTED_EDGE('',*,*,#410,.T.);
#412=ORIENTED_EDGE('',*,*,#378,.T.);
#413=EDGE_LOOP('',(#396,#404,#411,#412));
#414=FACE_BOUND('',#413,.T.);
#415=ADVANCED_FACE('NONE',(#414),#395,.T.);
#416=CARTESIAN_POINT('',(8.95,12.9,1.));
#417=DIRECTION('',(-1.,0.,0.));
#418=DIRECTION('',(0.,-1.,0.));
#419=AXIS2_PLACEMENT_3D('',#416,#417,#418);
#420=PLANE('',#419);
#421=ORIENTED_EDGE('',*,*,#403,.F.);
#422=ORIENTED_EDGE('',*,*,#93,.F.);
#423=ORIENTED_EDGE('',*,*,#264,.F.);
#424=CARTESIAN_POINT('',(8.95,-10.9,1.));
#425=DIRECTION('',(0.,1.,0.));
#426=VECTOR('',#425,21.8);
#427=LINE('',#424,#426);
#428=EDGE_CURVE('',#398,#252,#427,.T.);
#429=ORIENTED_EDGE('',*,*,#428,.F.);
#430=EDGE_LOOP('',(#421,#422,#423,#429));
#431=FACE_BOUND('',#430,.T.);
#432=ADVANCED_FACE('NONE',(#431),#420,.F.);
#433=CARTESIAN_POINT('',(0.,0.,1.));
#434=DIRECTION('',(0.,0.,-1.));
#435=DIRECTION('',(-1.,0.,0.));
#436=AXIS2_PLACEMENT_3D('',#433,#434,#435);
#437=PLANE('',#436);
#438=ORIENTED_EDGE('',*,*,#229,.F.);
#439=ORIENTED_EDGE('',*,*,#159,.T.);
#440=ORIENTED_EDGE('',*,*,#182,.F.);
#441=ORIENTED_EDGE('',*,*,#213,.T.);
#442=EDGE_LOOP('',(#438,#439,#440,#441));
#443=FACE_BOUND('',#442,.T.);
#444=ORIENTED_EDGE('',*,*,#410,.F.);
#445=ORIENTED_EDGE('',*,*,#428,.T.);
#446=ORIENTED_EDGE('',*,*,#258,.F.);
#447=ORIENTED_EDGE('',*,*,#286,.T.);
#448=ORIENTED_EDGE('',*,*,#312,.F.);
#449=ORIENTED_EDGE('',*,*,#335,.T.);
#450=ORIENTED_EDGE('',*,*,#361,.F.);
#451=ORIENTED_EDGE('',*,*,#384,.T.);
#452=EDGE_LOOP('',(#444,#445,#446,#447,#448,#449,#450,#451));
#453=FACE_BOUND('',#452,.T.);
#454=ADVANCED_FACE('NONE',(#443,#453),#437,.F.);
#455=CLOSED_SHELL('',(#138,#170,#194,#219,#236,#268,#292,#317,#341,#366,#390,#415,#432,#454));
#456=MANIFOLD_SOLID_BREP('Imported1',#455);
#457=COLOUR_RGB('',0.988235295,0.737254918,0.517647088);
#458=FILL_AREA_STYLE_COLOUR('',#457);
#459=FILL_AREA_STYLE('',(#458));
#460=SURFACE_STYLE_FILL_AREA(#459);
#461=SURFACE_SIDE_STYLE('',(#460));
#462=SURFACE_STYLE_USAGE(.BOTH.,#461);
#463=PRESENTATION_STYLE_ASSIGNMENT((#462));
#26=STYLED_ITEM('',(#463),#456);
#464=INTEGER_REPRESENTATION_ITEM('ATTRIB_BOUNDING_BOX_ALGORITHM',3);
#465=ID_ATTRIBUTE('SA #466',#466);
#466=SHAPE_ASPECT('properties','',#23,.F.);
#467=GEOMETRIC_ITEM_SPECIFIC_USAGE('','properties',#466,#17,#456);
#468=PROPERTY_DEFINITION('ATTRIB_BOUNDING_BOX_ALGORITHM','',#466);
#469=REPRESENTATION('',(#464),#10);
#470=PROPERTY_DEFINITION_REPRESENTATION(#468,#469);
#471=GENERAL_PROPERTY('','ATTRIB_BOUNDING_BOX_ALGORITHM','');
#472=GENERAL_PROPERTY_ASSOCIATION('','',#471,#468);
#16=SHAPE_REPRESENTATION('5808 NBR Gasket for GSA20',(#15),#10);
#17=ADVANCED_BREP_SHAPE_REPRESENTATION('5808 NBR Gasket for GSA20',(#456),#10);
#480=SHAPE_REPRESENTATION_RELATIONSHIP('','',#16,#17);
#481=CARTESIAN_POINT('',(0.,0.,0.));
#482=DIRECTION('',(0.,0.,1.));
#483=DIRECTION('',(1.,0.,0.));
#484=AXIS2_PLACEMENT_3D('',#481,#482,#483);
#486=MAPPED_ITEM('',#485,#484);
#485=REPRESENTATION_MAP(#484,#16);
#487=APPLICATION_CONTEXT('Managed model based 3d engineering');
#488=APPLICATION_PROTOCOL_DEFINITION('international standard','ap242_managed_model_based_3d_engineering',2013,#487);
#489=PRODUCT_CONTEXT('',#487,'mechanical');
#490=PRODUCT_DEFINITION_CONTEXT('part definition',#487,'design');
#24=PRODUCT('5808 NBR Gasket for GSA20','5808 NBR Gasket for GSA20','',(#489));
#491=PRODUCT_RELATED_PRODUCT_CATEGORY('part','',(#24));
#492=PRODUCT_DEFINITION_FORMATION_WITH_SPECIFIED_SOURCE('','',#24,.NOT_KNOWN.);
#25=PRODUCT_DEFINITION('design','',#492,#490);
#23=PRODUCT_DEFINITION_SHAPE('','',#25);
#493=SHAPE_DEFINITION_REPRESENTATION(#23,#16);
#11=DRAUGHTING_MODEL('',(#486),#10);
#1=MECHANICAL_DESIGN_GEOMETRIC_PRESENTATION_REPRESENTATION('',(#26),#10);
ENDSEC;
END-ISO-10303-21;
