ISO-10303-21;
HEADER;
/* Generated by software containing ST-Developer
 * from STEP Tools, Inc. (www.steptools.com) 
 */

FILE_DESCRIPTION(
/* description */ ('Alibre Inc.'),
/* implementation_level */ '2;1');

FILE_NAME(
/* name */ 'export-564F5E44-BA92-4B94-84D5-AD4814493731',
/* time_stamp */ '2021-04-16T12:16:23+02:00',
/* author */ (''),
/* organization */ (''),
/* preprocessor_version */ 'ST-DEVELOPER v17',
/* originating_system */ 'Alibre',
/* authorisation */ '');

FILE_SCHEMA (('AUTOMOTIVE_DESIGN'));
ENDSEC;

DATA;
#10=STYLED_ITEM('NAME_0',(#47),#679);
#11=STYLED_ITEM('NAME_0',(#48),#384);
#12=STYLED_ITEM('NAME_0',(#48),#385);
#13=STYLED_ITEM('NAME_0',(#48),#386);
#14=STYLED_ITEM('NAME_0',(#48),#387);
#15=STYLED_ITEM('NAME_0',(#48),#388);
#16=STYLED_ITEM('NAME_0',(#48),#389);
#17=STYLED_ITEM('NAME_0',(#48),#390);
#18=STYLED_ITEM('NAME_0',(#48),#391);
#19=STYLED_ITEM('NAME_0',(#48),#392);
#20=STYLED_ITEM('NAME_0',(#48),#393);
#21=STYLED_ITEM('NAME_0',(#48),#394);
#22=STYLED_ITEM('NAME_0',(#48),#395);
#23=STYLED_ITEM('NAME_0',(#48),#396);
#24=STYLED_ITEM('NAME_0',(#48),#397);
#25=STYLED_ITEM('NAME_0',(#48),#398);
#26=STYLED_ITEM('NAME_0',(#48),#399);
#27=STYLED_ITEM('NAME_0',(#48),#400);
#28=STYLED_ITEM('NAME_0',(#48),#401);
#29=STYLED_ITEM('NAME_0',(#48),#402);
#30=STYLED_ITEM('NAME_0',(#48),#403);
#31=STYLED_ITEM('NAME_0',(#48),#404);
#32=STYLED_ITEM('NAME_0',(#48),#405);
#33=STYLED_ITEM('NAME_0',(#48),#406);
#34=MECHANICAL_DESIGN_GEOMETRIC_PRESENTATION_REPRESENTATION('NAME_0',(#10,
#11,#12,#13,#14,#15,#16,#17,#18,#19,#20,#21,#22,#23,#24,#25,#26,#27,#28,
#29,#30,#31,#32,#33),#63);
#35=COLOUR_RGB('',0.882352941176471,0.882352941176471,0.882352941176471);
#36=COLOUR_RGB('',0.686274509803922,0.686274509803922,0.686274509803922);
#37=FILL_AREA_STYLE_COLOUR('NAME_0',#35);
#38=FILL_AREA_STYLE_COLOUR('NAME_0',#36);
#39=FILL_AREA_STYLE('NAME_0',(#37));
#40=FILL_AREA_STYLE('NAME_0',(#38));
#41=SURFACE_STYLE_FILL_AREA(#39);
#42=SURFACE_STYLE_FILL_AREA(#40);
#43=SURFACE_SIDE_STYLE('NAME_0',(#41));
#44=SURFACE_SIDE_STYLE('NAME_0',(#42));
#45=SURFACE_STYLE_USAGE(.POSITIVE.,#43);
#46=SURFACE_STYLE_USAGE(.POSITIVE.,#44);
#47=PRESENTATION_STYLE_ASSIGNMENT((#45));
#48=PRESENTATION_STYLE_ASSIGNMENT((#46));
#49=PRODUCT_DEFINITION_CONTEXT('part definition',#56,'design');
#50=SHAPE_DEFINITION_REPRESENTATION(#51,#680);
#51=PRODUCT_DEFINITION_SHAPE('PRODUCT_VERSION_ID',
'PRODUCT_VERSION_DESCR',#52);
#52=PRODUCT_DEFINITION('PRODUCT_VERSION_ID','PRODUCT_VERSION_DESCR',#53,
#49);
#53=PRODUCT_DEFINITION_FORMATION_WITH_SPECIFIED_SOURCE(
'PRODUCT_VERSION_ID','PRODUCT_VERSION_DESCR',#58,.MADE.);
#54=PRODUCT_RELATED_PRODUCT_CATEGORY('part','part',(#58));
#55=APPLICATION_PROTOCOL_DEFINITION('Draft International Standard',
'automotive_design',1994,#56);
#56=APPLICATION_CONTEXT('automotive_Design');
#57=PRODUCT_CONTEXT('3D Mechanical Parts',#56,'mechanical');
#58=PRODUCT('_W0950080025-1','5554 W0950080025 Rod-Eye GA-M M4x0.7','',
(#57));
#59=(
LENGTH_UNIT()
NAMED_UNIT(*)
SI_UNIT(.MILLI.,.METRE.)
);
#60=(
NAMED_UNIT(*)
PLANE_ANGLE_UNIT()
SI_UNIT($,.RADIAN.)
);
#61=(
NAMED_UNIT(*)
SI_UNIT($,.STERADIAN.)
SOLID_ANGLE_UNIT()
);
#62=UNCERTAINTY_MEASURE_WITH_UNIT(LENGTH_MEASURE(1.E-6),#59,
'DISTANCE_ACCURACY_VALUE',
'Maximum model space distance between geometric entities at asserted c
onnectivities');
#63=(
GEOMETRIC_REPRESENTATION_CONTEXT(3)
GLOBAL_UNCERTAINTY_ASSIGNED_CONTEXT((#62))
GLOBAL_UNIT_ASSIGNED_CONTEXT((#61,#60,#59))
REPRESENTATION_CONTEXT('ID1','3D')
);
#64=ELLIPSE('',#429,7.00075722087186,4.5);
#65=ELLIPSE('',#441,7.00075722087186,4.5);
#66=ELLIPSE('',#443,7.00075722087186,4.5);
#67=PLANE('',#424);
#68=PLANE('',#426);
#69=PLANE('',#428);
#70=PLANE('',#430);
#71=PLANE('',#431);
#72=PLANE('',#437);
#73=PLANE('',#447);
#74=PLANE('',#448);
#75=PLANE('',#453);
#76=PLANE('',#454);
#77=PLANE('',#455);
#78=(
BOUNDED_CURVE()
B_SPLINE_CURVE(2,(#488,#489,#490),.UNSPECIFIED.,.F.,.U.)
B_SPLINE_CURVE_WITH_KNOTS((3,3),(0.0429624424710559,6.5933503016676),
 .UNSPECIFIED.)
CURVE()
GEOMETRIC_REPRESENTATION_ITEM()
RATIONAL_B_SPLINE_CURVE((1.00067865267135,1.05208035225916,1.00144128705421))
REPRESENTATION_ITEM('')
);
#79=(
BOUNDED_CURVE()
B_SPLINE_CURVE(2,(#492,#493,#494),.UNSPECIFIED.,.F.,.U.)
B_SPLINE_CURVE_WITH_KNOTS((3,3),(0.0919188670196622,6.64230672621706),
 .UNSPECIFIED.)
CURVE()
GEOMETRIC_REPRESENTATION_ITEM()
RATIONAL_B_SPLINE_CURVE((1.00144128705421,1.05208035225914,1.00067865267134))
REPRESENTATION_ITEM('')
);
#80=(
BOUNDED_CURVE()
B_SPLINE_CURVE(2,(#500,#501,#502),.UNSPECIFIED.,.F.,.U.)
B_SPLINE_CURVE_WITH_KNOTS((3,3),(0.0919188670185819,6.64230672621705),
 .UNSPECIFIED.)
CURVE()
GEOMETRIC_REPRESENTATION_ITEM()
RATIONAL_B_SPLINE_CURVE((1.00144128705419,1.05208035225918,1.00067865267134))
REPRESENTATION_ITEM('')
);
#81=(
BOUNDED_CURVE()
B_SPLINE_CURVE(2,(#510,#511,#512),.UNSPECIFIED.,.F.,.U.)
B_SPLINE_CURVE_WITH_KNOTS((3,3),(0.0429624424710566,6.59335030166863),
 .UNSPECIFIED.)
CURVE()
GEOMETRIC_REPRESENTATION_ITEM()
RATIONAL_B_SPLINE_CURVE((1.00067865267135,1.05208035225917,1.00144128705419))
REPRESENTATION_ITEM('')
);
#82=SPHERICAL_SURFACE('',#415,9.);
#83=SPHERICAL_SURFACE('',#449,5.555);
#84=SPHERICAL_SURFACE('',#451,5.555);
#85=CYLINDRICAL_SURFACE('',#409,1.621);
#86=CYLINDRICAL_SURFACE('',#411,2.5);
#87=CYLINDRICAL_SURFACE('',#435,5.5);
#88=CYLINDRICAL_SURFACE('',#439,4.5);
#89=CYLINDRICAL_SURFACE('',#445,5.5);
#90=CIRCLE('',#408,1.621);
#91=CIRCLE('',#410,1.621);
#92=CIRCLE('',#412,2.5);
#93=CIRCLE('',#413,2.5);
#94=CIRCLE('',#414,2.5);
#95=CIRCLE('',#416,9.);
#96=CIRCLE('',#417,7.72015288047179);
#97=CIRCLE('',#418,8.48528137423857);
#98=CIRCLE('',#419,7.72015288047179);
#99=CIRCLE('',#420,8.48528137423857);
#100=CIRCLE('',#421,7.72015288047179);
#101=CIRCLE('',#423,4.5);
#102=CIRCLE('',#425,4.67525667744563);
#103=CIRCLE('',#427,4.67525667744563);
#104=CIRCLE('',#432,2.00000000000194);
#105=CIRCLE('',#433,5.5);
#106=CIRCLE('',#434,5.5);
#107=CIRCLE('',#436,5.5);
#108=CIRCLE('',#438,4.5);
#109=CIRCLE('',#440,4.5);
#110=CIRCLE('',#442,4.5);
#111=CIRCLE('',#446,5.5);
#112=CIRCLE('',#450,3.85461087530246);
#113=CIRCLE('',#452,3.85461087530246);
#114=VERTEX_POINT('',#459);
#115=VERTEX_POINT('',#460);
#116=VERTEX_POINT('',#464);
#117=VERTEX_POINT('',#468);
#118=VERTEX_POINT('',#469);
#119=VERTEX_POINT('',#472);
#120=VERTEX_POINT('',#476);
#121=VERTEX_POINT('',#477);
#122=VERTEX_POINT('',#479);
#123=VERTEX_POINT('',#481);
#124=VERTEX_POINT('',#483);
#125=VERTEX_POINT('',#485);
#126=VERTEX_POINT('',#491);
#127=VERTEX_POINT('',#495);
#128=VERTEX_POINT('',#499);
#129=VERTEX_POINT('',#503);
#130=VERTEX_POINT('',#507);
#131=VERTEX_POINT('',#509);
#132=VERTEX_POINT('',#517);
#133=VERTEX_POINT('',#518);
#134=VERTEX_POINT('',#520);
#135=VERTEX_POINT('',#522);
#136=VERTEX_POINT('',#524);
#137=VERTEX_POINT('',#528);
#138=VERTEX_POINT('',#530);
#139=VERTEX_POINT('',#531);
#140=VERTEX_POINT('',#536);
#141=VERTEX_POINT('',#540);
#142=VERTEX_POINT('',#544);
#143=VERTEX_POINT('',#552);
#144=VERTEX_POINT('',#559);
#145=VERTEX_POINT('',#562);
#146=VECTOR('',#570,1.);
#147=VECTOR('',#575,1.);
#148=VECTOR('',#580,1.);
#149=VECTOR('',#608,1.);
#150=VECTOR('',#612,1.);
#151=VECTOR('',#617,1.);
#152=VECTOR('',#618,1.);
#153=VECTOR('',#619,1.);
#154=VECTOR('',#620,1.);
#155=VECTOR('',#621,1.);
#156=VECTOR('',#625,1.);
#157=VECTOR('',#634,1.);
#158=VECTOR('',#638,1.);
#159=VECTOR('',#641,1.);
#160=VECTOR('',#654,1.);
#161=VECTOR('',#658,1.);
#162=VECTOR('',#673,1.);
#163=LINE('',#458,#146);
#164=LINE('',#463,#147);
#165=LINE('',#467,#148);
#166=LINE('',#504,#149);
#167=LINE('',#508,#150);
#168=LINE('',#516,#151);
#169=LINE('',#519,#152);
#170=LINE('',#521,#153);
#171=LINE('',#523,#154);
#172=LINE('',#525,#155);
#173=LINE('',#529,#156);
#174=LINE('',#537,#157);
#175=LINE('',#541,#158);
#176=LINE('',#543,#159);
#177=LINE('',#551,#160);
#178=LINE('',#555,#161);
#179=LINE('',#567,#162);
#180=EDGE_CURVE('',#114,#115,#163,.T.);
#181=EDGE_CURVE('',#114,#114,#90,.T.);
#182=EDGE_CURVE('',#114,#116,#164,.T.);
#183=EDGE_CURVE('',#116,#116,#91,.F.);
#184=EDGE_CURVE('',#117,#118,#165,.T.);
#185=EDGE_CURVE('',#117,#117,#92,.T.);
#186=EDGE_CURVE('',#118,#119,#93,.T.);
#187=EDGE_CURVE('',#119,#118,#94,.T.);
#188=EDGE_CURVE('',#120,#121,#95,.T.);
#189=EDGE_CURVE('',#122,#120,#96,.F.);
#190=EDGE_CURVE('',#122,#123,#97,.T.);
#191=EDGE_CURVE('',#124,#123,#98,.F.);
#192=EDGE_CURVE('',#124,#125,#99,.T.);
#193=EDGE_CURVE('',#120,#125,#100,.F.);
#194=EDGE_CURVE('',#124,#126,#78,.T.);
#195=EDGE_CURVE('',#127,#123,#79,.T.);
#196=EDGE_CURVE('',#126,#127,#101,.F.);
#197=EDGE_CURVE('',#128,#128,#102,.T.);
#198=EDGE_CURVE('',#122,#129,#80,.F.);
#199=EDGE_CURVE('',#129,#127,#166,.F.);
#200=EDGE_CURVE('',#130,#130,#103,.T.);
#201=EDGE_CURVE('',#131,#126,#167,.T.);
#202=EDGE_CURVE('',#131,#125,#81,.F.);
#203=EDGE_CURVE('',#126,#131,#64,.T.);
#204=EDGE_CURVE('',#132,#133,#168,.F.);
#205=EDGE_CURVE('',#133,#134,#169,.T.);
#206=EDGE_CURVE('',#134,#135,#170,.F.);
#207=EDGE_CURVE('',#135,#136,#171,.T.);
#208=EDGE_CURVE('',#136,#132,#172,.F.);
#209=EDGE_CURVE('',#137,#137,#104,.T.);
#210=EDGE_CURVE('',#138,#139,#173,.T.);
#211=EDGE_CURVE('',#138,#135,#105,.F.);
#212=EDGE_CURVE('',#134,#139,#106,.F.);
#213=EDGE_CURVE('',#133,#140,#107,.F.);
#214=EDGE_CURVE('',#139,#140,#174,.F.);
#215=EDGE_CURVE('',#132,#141,#108,.T.);
#216=EDGE_CURVE('',#140,#141,#175,.T.);
#217=EDGE_CURVE('',#142,#141,#176,.T.);
#218=EDGE_CURVE('',#141,#132,#109,.F.);
#219=EDGE_CURVE('',#129,#142,#65,.F.);
#220=EDGE_CURVE('',#129,#131,#110,.T.);
#221=EDGE_CURVE('',#142,#127,#66,.F.);
#222=EDGE_CURVE('',#143,#138,#177,.F.);
#223=EDGE_CURVE('',#143,#136,#111,.F.);
#224=EDGE_CURVE('',#141,#143,#178,.F.);
#225=EDGE_CURVE('',#144,#144,#112,.T.);
#226=EDGE_CURVE('',#145,#145,#113,.T.);
#227=EDGE_CURVE('',#137,#116,#179,.T.);
#228=ORIENTED_EDGE('',*,*,#180,.F.);
#229=ORIENTED_EDGE('',*,*,#181,.T.);
#230=ORIENTED_EDGE('',*,*,#180,.T.);
#231=ORIENTED_EDGE('',*,*,#182,.F.);
#232=ORIENTED_EDGE('',*,*,#181,.F.);
#233=ORIENTED_EDGE('',*,*,#182,.T.);
#234=ORIENTED_EDGE('',*,*,#183,.T.);
#235=ORIENTED_EDGE('',*,*,#184,.F.);
#236=ORIENTED_EDGE('',*,*,#185,.T.);
#237=ORIENTED_EDGE('',*,*,#184,.T.);
#238=ORIENTED_EDGE('',*,*,#186,.T.);
#239=ORIENTED_EDGE('',*,*,#187,.T.);
#240=ORIENTED_EDGE('',*,*,#188,.T.);
#241=ORIENTED_EDGE('',*,*,#188,.F.);
#242=ORIENTED_EDGE('',*,*,#189,.F.);
#243=ORIENTED_EDGE('',*,*,#190,.T.);
#244=ORIENTED_EDGE('',*,*,#191,.F.);
#245=ORIENTED_EDGE('',*,*,#192,.T.);
#246=ORIENTED_EDGE('',*,*,#193,.F.);
#247=ORIENTED_EDGE('',*,*,#194,.F.);
#248=ORIENTED_EDGE('',*,*,#191,.T.);
#249=ORIENTED_EDGE('',*,*,#195,.F.);
#250=ORIENTED_EDGE('',*,*,#196,.F.);
#251=ORIENTED_EDGE('',*,*,#197,.F.);
#252=ORIENTED_EDGE('',*,*,#198,.T.);
#253=ORIENTED_EDGE('',*,*,#199,.T.);
#254=ORIENTED_EDGE('',*,*,#195,.T.);
#255=ORIENTED_EDGE('',*,*,#190,.F.);
#256=ORIENTED_EDGE('',*,*,#200,.F.);
#257=ORIENTED_EDGE('',*,*,#194,.T.);
#258=ORIENTED_EDGE('',*,*,#201,.F.);
#259=ORIENTED_EDGE('',*,*,#202,.T.);
#260=ORIENTED_EDGE('',*,*,#192,.F.);
#261=ORIENTED_EDGE('',*,*,#203,.T.);
#262=ORIENTED_EDGE('',*,*,#201,.T.);
#263=ORIENTED_EDGE('',*,*,#204,.T.);
#264=ORIENTED_EDGE('',*,*,#205,.T.);
#265=ORIENTED_EDGE('',*,*,#206,.T.);
#266=ORIENTED_EDGE('',*,*,#207,.T.);
#267=ORIENTED_EDGE('',*,*,#208,.T.);
#268=ORIENTED_EDGE('',*,*,#209,.F.);
#269=ORIENTED_EDGE('',*,*,#210,.F.);
#270=ORIENTED_EDGE('',*,*,#211,.T.);
#271=ORIENTED_EDGE('',*,*,#206,.F.);
#272=ORIENTED_EDGE('',*,*,#212,.T.);
#273=ORIENTED_EDGE('',*,*,#205,.F.);
#274=ORIENTED_EDGE('',*,*,#213,.T.);
#275=ORIENTED_EDGE('',*,*,#214,.F.);
#276=ORIENTED_EDGE('',*,*,#212,.F.);
#277=ORIENTED_EDGE('',*,*,#204,.F.);
#278=ORIENTED_EDGE('',*,*,#215,.T.);
#279=ORIENTED_EDGE('',*,*,#216,.F.);
#280=ORIENTED_EDGE('',*,*,#213,.F.);
#281=ORIENTED_EDGE('',*,*,#217,.T.);
#282=ORIENTED_EDGE('',*,*,#215,.F.);
#283=ORIENTED_EDGE('',*,*,#218,.F.);
#284=ORIENTED_EDGE('',*,*,#217,.F.);
#285=ORIENTED_EDGE('',*,*,#219,.F.);
#286=ORIENTED_EDGE('',*,*,#220,.T.);
#287=ORIENTED_EDGE('',*,*,#203,.F.);
#288=ORIENTED_EDGE('',*,*,#196,.T.);
#289=ORIENTED_EDGE('',*,*,#221,.F.);
#290=ORIENTED_EDGE('',*,*,#198,.F.);
#291=ORIENTED_EDGE('',*,*,#189,.T.);
#292=ORIENTED_EDGE('',*,*,#193,.T.);
#293=ORIENTED_EDGE('',*,*,#202,.F.);
#294=ORIENTED_EDGE('',*,*,#220,.F.);
#295=ORIENTED_EDGE('',*,*,#222,.F.);
#296=ORIENTED_EDGE('',*,*,#223,.T.);
#297=ORIENTED_EDGE('',*,*,#207,.F.);
#298=ORIENTED_EDGE('',*,*,#211,.F.);
#299=ORIENTED_EDGE('',*,*,#224,.T.);
#300=ORIENTED_EDGE('',*,*,#222,.T.);
#301=ORIENTED_EDGE('',*,*,#210,.T.);
#302=ORIENTED_EDGE('',*,*,#214,.T.);
#303=ORIENTED_EDGE('',*,*,#216,.T.);
#304=ORIENTED_EDGE('',*,*,#219,.T.);
#305=ORIENTED_EDGE('',*,*,#221,.T.);
#306=ORIENTED_EDGE('',*,*,#199,.F.);
#307=ORIENTED_EDGE('',*,*,#225,.F.);
#308=ORIENTED_EDGE('',*,*,#200,.T.);
#309=ORIENTED_EDGE('',*,*,#226,.F.);
#310=ORIENTED_EDGE('',*,*,#197,.T.);
#311=ORIENTED_EDGE('',*,*,#186,.F.);
#312=ORIENTED_EDGE('',*,*,#187,.F.);
#313=ORIENTED_EDGE('',*,*,#226,.T.);
#314=ORIENTED_EDGE('',*,*,#185,.F.);
#315=ORIENTED_EDGE('',*,*,#225,.T.);
#316=ORIENTED_EDGE('',*,*,#224,.F.);
#317=ORIENTED_EDGE('',*,*,#218,.T.);
#318=ORIENTED_EDGE('',*,*,#208,.F.);
#319=ORIENTED_EDGE('',*,*,#223,.F.);
#320=ORIENTED_EDGE('',*,*,#227,.F.);
#321=ORIENTED_EDGE('',*,*,#209,.T.);
#322=ORIENTED_EDGE('',*,*,#227,.T.);
#323=ORIENTED_EDGE('',*,*,#183,.F.);
#324=EDGE_LOOP('',(#228,#229,#230));
#325=EDGE_LOOP('',(#231,#232,#233,#234));
#326=EDGE_LOOP('',(#235,#236,#237,#238,#239));
#327=EDGE_LOOP('',(#240,#241,#242,#243,#244,#245,#246));
#328=EDGE_LOOP('',(#247,#248,#249,#250));
#329=EDGE_LOOP('',(#251));
#330=EDGE_LOOP('',(#252,#253,#254,#255));
#331=EDGE_LOOP('',(#256));
#332=EDGE_LOOP('',(#257,#258,#259,#260));
#333=EDGE_LOOP('',(#261,#262));
#334=EDGE_LOOP('',(#263,#264,#265,#266,#267));
#335=EDGE_LOOP('',(#268));
#336=EDGE_LOOP('',(#269,#270,#271,#272));
#337=EDGE_LOOP('',(#273,#274,#275,#276));
#338=EDGE_LOOP('',(#277,#278,#279,#280));
#339=EDGE_LOOP('',(#281,#282,#283,#284,#285,#286,#287,#288,#289));
#340=EDGE_LOOP('',(#290,#291,#292,#293,#294));
#341=EDGE_LOOP('',(#295,#296,#297,#298));
#342=EDGE_LOOP('',(#299,#300,#301,#302,#303));
#343=EDGE_LOOP('',(#304,#305,#306));
#344=EDGE_LOOP('',(#307));
#345=EDGE_LOOP('',(#308));
#346=EDGE_LOOP('',(#309));
#347=EDGE_LOOP('',(#310));
#348=EDGE_LOOP('',(#311,#312));
#349=EDGE_LOOP('',(#313));
#350=EDGE_LOOP('',(#314));
#351=EDGE_LOOP('',(#315));
#352=EDGE_LOOP('',(#316,#317,#318,#319));
#353=EDGE_LOOP('',(#320,#321,#322,#323));
#354=FACE_BOUND('',#324,.T.);
#355=FACE_BOUND('',#325,.T.);
#356=FACE_BOUND('',#326,.T.);
#357=FACE_BOUND('',#327,.T.);
#358=FACE_BOUND('',#328,.T.);
#359=FACE_BOUND('',#329,.T.);
#360=FACE_BOUND('',#330,.T.);
#361=FACE_BOUND('',#331,.T.);
#362=FACE_BOUND('',#332,.T.);
#363=FACE_BOUND('',#333,.T.);
#364=FACE_BOUND('',#334,.T.);
#365=FACE_BOUND('',#335,.T.);
#366=FACE_BOUND('',#336,.T.);
#367=FACE_BOUND('',#337,.T.);
#368=FACE_BOUND('',#338,.T.);
#369=FACE_BOUND('',#339,.T.);
#370=FACE_BOUND('',#340,.T.);
#371=FACE_BOUND('',#341,.T.);
#372=FACE_BOUND('',#342,.T.);
#373=FACE_BOUND('',#343,.T.);
#374=FACE_BOUND('',#344,.T.);
#375=FACE_BOUND('',#345,.T.);
#376=FACE_BOUND('',#346,.T.);
#377=FACE_BOUND('',#347,.T.);
#378=FACE_BOUND('',#348,.T.);
#379=FACE_BOUND('',#349,.T.);
#380=FACE_BOUND('',#350,.T.);
#381=FACE_BOUND('',#351,.T.);
#382=FACE_BOUND('',#352,.T.);
#383=FACE_BOUND('',#353,.T.);
#384=ADVANCED_FACE('',(#354),#674,.F.);
#385=ADVANCED_FACE('',(#355),#85,.F.);
#386=ADVANCED_FACE('',(#356),#86,.F.);
#387=ADVANCED_FACE('',(#357),#82,.T.);
#388=ADVANCED_FACE('',(#358),#675,.T.);
#389=ADVANCED_FACE('',(#359,#360),#67,.T.);
#390=ADVANCED_FACE('',(#361,#362),#68,.T.);
#391=ADVANCED_FACE('',(#363),#69,.T.);
#392=ADVANCED_FACE('',(#364),#70,.T.);
#393=ADVANCED_FACE('',(#365,#366),#71,.F.);
#394=ADVANCED_FACE('',(#367),#87,.T.);
#395=ADVANCED_FACE('',(#368),#72,.F.);
#396=ADVANCED_FACE('',(#369),#88,.T.);
#397=ADVANCED_FACE('',(#370),#676,.T.);
#398=ADVANCED_FACE('',(#371),#89,.T.);
#399=ADVANCED_FACE('',(#372),#73,.T.);
#400=ADVANCED_FACE('',(#373),#74,.T.);
#401=ADVANCED_FACE('',(#374,#375),#83,.T.);
#402=ADVANCED_FACE('',(#376,#377),#84,.T.);
#403=ADVANCED_FACE('',(#378,#379),#75,.F.);
#404=ADVANCED_FACE('',(#380,#381),#76,.F.);
#405=ADVANCED_FACE('',(#382),#77,.F.);
#406=ADVANCED_FACE('',(#383),#677,.F.);
#407=AXIS2_PLACEMENT_3D('',#457,#568,#569);
#408=AXIS2_PLACEMENT_3D('',#461,#571,#572);
#409=AXIS2_PLACEMENT_3D('',#462,#573,#574);
#410=AXIS2_PLACEMENT_3D('',#465,#576,#577);
#411=AXIS2_PLACEMENT_3D('',#466,#578,#579);
#412=AXIS2_PLACEMENT_3D('',#470,#581,#582);
#413=AXIS2_PLACEMENT_3D('',#471,#583,#584);
#414=AXIS2_PLACEMENT_3D('',#473,#585,#586);
#415=AXIS2_PLACEMENT_3D('',#474,#587,#588);
#416=AXIS2_PLACEMENT_3D('',#475,#589,#590);
#417=AXIS2_PLACEMENT_3D('',#478,#591,#592);
#418=AXIS2_PLACEMENT_3D('',#480,#593,#594);
#419=AXIS2_PLACEMENT_3D('',#482,#595,#596);
#420=AXIS2_PLACEMENT_3D('',#484,#597,#598);
#421=AXIS2_PLACEMENT_3D('',#486,#599,#600);
#422=AXIS2_PLACEMENT_3D('',#487,#601,#602);
#423=AXIS2_PLACEMENT_3D('',#496,#603,#604);
#424=AXIS2_PLACEMENT_3D('',#497,#605,$);
#425=AXIS2_PLACEMENT_3D('',#498,#606,#607);
#426=AXIS2_PLACEMENT_3D('',#505,#609,$);
#427=AXIS2_PLACEMENT_3D('',#506,#610,#611);
#428=AXIS2_PLACEMENT_3D('',#513,#613,$);
#429=AXIS2_PLACEMENT_3D('',#514,#614,#615);
#430=AXIS2_PLACEMENT_3D('',#515,#616,$);
#431=AXIS2_PLACEMENT_3D('',#526,#622,$);
#432=AXIS2_PLACEMENT_3D('',#527,#623,#624);
#433=AXIS2_PLACEMENT_3D('',#532,#626,#627);
#434=AXIS2_PLACEMENT_3D('',#533,#628,#629);
#435=AXIS2_PLACEMENT_3D('',#534,#630,#631);
#436=AXIS2_PLACEMENT_3D('',#535,#632,#633);
#437=AXIS2_PLACEMENT_3D('',#538,#635,$);
#438=AXIS2_PLACEMENT_3D('',#539,#636,#637);
#439=AXIS2_PLACEMENT_3D('',#542,#639,#640);
#440=AXIS2_PLACEMENT_3D('',#545,#642,#643);
#441=AXIS2_PLACEMENT_3D('',#546,#644,#645);
#442=AXIS2_PLACEMENT_3D('',#547,#646,#647);
#443=AXIS2_PLACEMENT_3D('',#548,#648,#649);
#444=AXIS2_PLACEMENT_3D('',#549,#650,#651);
#445=AXIS2_PLACEMENT_3D('',#550,#652,#653);
#446=AXIS2_PLACEMENT_3D('',#553,#655,#656);
#447=AXIS2_PLACEMENT_3D('',#554,#657,$);
#448=AXIS2_PLACEMENT_3D('',#556,#659,$);
#449=AXIS2_PLACEMENT_3D('',#557,#660,#661);
#450=AXIS2_PLACEMENT_3D('',#558,#662,#663);
#451=AXIS2_PLACEMENT_3D('',#560,#664,#665);
#452=AXIS2_PLACEMENT_3D('',#561,#666,#667);
#453=AXIS2_PLACEMENT_3D('',#563,#668,$);
#454=AXIS2_PLACEMENT_3D('',#564,#669,$);
#455=AXIS2_PLACEMENT_3D('',#565,#670,$);
#456=AXIS2_PLACEMENT_3D('',#566,#671,#672);
#457=CARTESIAN_POINT('',(514.064115213644,0.,0.));
#458=CARTESIAN_POINT('',(-484.999999996049,0.,864.404403791231));
#459=CARTESIAN_POINT('',(15.,-1.98515246141786E-16,-1.6209999965845));
#460=CARTESIAN_POINT('',(14.0641152175949,0.,-1.70530256582424E-13));
#461=CARTESIAN_POINT('',(15.0000000039439,0.,0.));
#462=CARTESIAN_POINT('',(27.,0.,0.));
#463=CARTESIAN_POINT('',(14.621,0.,-1.621));
#464=CARTESIAN_POINT('',(26.621,-1.98515246141786E-16,-1.621));
#465=CARTESIAN_POINT('',(26.621,0.,0.));
#466=CARTESIAN_POINT('',(0.,0.,9.));
#467=CARTESIAN_POINT('',(-2.5,0.,-9.));
#468=CARTESIAN_POINT('',(-2.5,3.06161699786838E-16,4.));
#469=CARTESIAN_POINT('',(-2.5,-1.53080849893419E-16,-4.));
#470=CARTESIAN_POINT('',(0.,0.,4.));
#471=CARTESIAN_POINT('',(0.,0.,-4.));
#472=CARTESIAN_POINT('',(2.5,1.53080849893419E-16,-4.));
#473=CARTESIAN_POINT('',(0.,0.,-4.));
#474=CARTESIAN_POINT('',(-8.67361737988404E-16,-1.73472347597681E-15,0.));
#475=CARTESIAN_POINT('',(-8.67361737988404E-16,-1.73472347597681E-15,0.));
#476=CARTESIAN_POINT('',(4.62593120378216,7.72015288048853,0.));
#477=CARTESIAN_POINT('',(-9.,-1.8443169419786E-16,0.));
#478=CARTESIAN_POINT('',(4.62593120383611,0.,0.));
#479=CARTESIAN_POINT('',(4.62593120383611,7.11342115284926,-3.00000000000892));
#480=CARTESIAN_POINT('',(-8.67361737988404E-16,-1.73472347597681E-15,-3.));
#481=CARTESIAN_POINT('',(4.62593120382236,-7.11342115282812,-3.));
#482=CARTESIAN_POINT('',(4.62593120383611,0.,0.));
#483=CARTESIAN_POINT('',(4.62593120383611,-7.11342115284926,3.00000000000892));
#484=CARTESIAN_POINT('',(-8.67361737988404E-16,-1.73472347597681E-15,3.));
#485=CARTESIAN_POINT('',(4.62593120382236,7.11342115282812,3.));
#486=CARTESIAN_POINT('',(4.62593120383611,0.,0.));
#487=CARTESIAN_POINT('',(4.62593120378903,0.,0.));
#488=CARTESIAN_POINT('',(4.62593120383802,-7.11342115285178,3.));
#489=CARTESIAN_POINT('',(8.27799045572888,-4.73844932304455,3.));
#490=CARTESIAN_POINT('',(9.99999999999942,-3.35410196624969,3.));
#491=CARTESIAN_POINT('',(9.99999999999941,-3.35410196624969,3.));
#492=CARTESIAN_POINT('',(9.99999999999941,-3.35410196624969,-3.));
#493=CARTESIAN_POINT('',(8.27799045572863,-4.73844932304475,-3.));
#494=CARTESIAN_POINT('',(4.62593120383701,-7.11342115285244,-3.));
#495=CARTESIAN_POINT('',(9.99999999999941,-3.35410196624968,-3.));
#496=CARTESIAN_POINT('',(9.99999999999941,0.,0.));
#497=CARTESIAN_POINT('',(-17.,18.,-3.));
#498=CARTESIAN_POINT('',(-8.67361737988404E-16,4.33680868994202E-16,-3.));
#499=CARTESIAN_POINT('',(-4.67525667741616,-1.38872943522818E-16,-3.00000000001037));
#500=CARTESIAN_POINT('',(10.,3.35410196624921,-3.));
#501=CARTESIAN_POINT('',(8.27799045572923,4.73844932304436,-3.));
#502=CARTESIAN_POINT('',(4.62593120383701,7.11342115285244,-3.));
#503=CARTESIAN_POINT('',(10.,3.35410196624921,-3.));
#504=CARTESIAN_POINT('',(10.,18.,-3.));
#505=CARTESIAN_POINT('',(10.,18.,3.));
#506=CARTESIAN_POINT('',(-8.67361737988404E-16,4.33680868994202E-16,3.));
#507=CARTESIAN_POINT('',(4.67525667741616,-4.70244335861314E-17,3.00000000001037));
#508=CARTESIAN_POINT('',(9.99999999999998,18.,3.));
#509=CARTESIAN_POINT('',(9.99999999999998,3.35410196624923,3.));
#510=CARTESIAN_POINT('',(4.62593120383802,7.11342115285179,3.));
#511=CARTESIAN_POINT('',(8.27799045572943,4.7384493230442,3.));
#512=CARTESIAN_POINT('',(9.99999999999998,3.35410196624923,3.));
#513=CARTESIAN_POINT('',(11.7876303888913,18.,4.5));
#514=CARTESIAN_POINT('',(6.42473922221735,0.,0.));
#515=CARTESIAN_POINT('',(27.,18.,4.5));
#516=CARTESIAN_POINT('',(23.,11.25,4.5));
#517=CARTESIAN_POINT('',(23.,0.,4.5));
#518=CARTESIAN_POINT('',(23.,-3.16227766016838,4.5));
#519=CARTESIAN_POINT('',(27.,-3.16227766016838,4.5));
#520=CARTESIAN_POINT('',(27.,-3.16227766016838,4.5));
#521=CARTESIAN_POINT('',(27.,11.75,4.5));
#522=CARTESIAN_POINT('',(27.,3.16227766016838,4.5));
#523=CARTESIAN_POINT('',(27.,3.16227766016838,4.5));
#524=CARTESIAN_POINT('',(23.,3.16227766016838,4.5));
#525=CARTESIAN_POINT('',(23.,11.25,4.5));
#526=CARTESIAN_POINT('',(27.,5.5,0.));
#527=CARTESIAN_POINT('',(27.,0.,0.));
#528=CARTESIAN_POINT('',(26.9999999999995,-2.44929359829471E-16,-2.00000000000097));
#529=CARTESIAN_POINT('',(27.,11.75,-4.5));
#530=CARTESIAN_POINT('',(27.,3.16227766016838,-4.5));
#531=CARTESIAN_POINT('',(27.,-3.16227766016838,-4.5));
#532=CARTESIAN_POINT('',(27.,0.,0.));
#533=CARTESIAN_POINT('',(27.,0.,0.));
#534=CARTESIAN_POINT('',(27.,0.,0.));
#535=CARTESIAN_POINT('',(23.,0.,0.));
#536=CARTESIAN_POINT('',(23.,-3.16227766016838,-4.5));
#537=CARTESIAN_POINT('',(27.,-3.16227766016838,-4.5));
#538=CARTESIAN_POINT('',(23.,4.5,0.));
#539=CARTESIAN_POINT('',(23.,0.,0.));
#540=CARTESIAN_POINT('',(23.,0.,-4.5));
#541=CARTESIAN_POINT('',(23.,11.25,-4.5));
#542=CARTESIAN_POINT('',(27.,0.,0.));
#543=CARTESIAN_POINT('',(6.,0.,-4.5));
#544=CARTESIAN_POINT('',(11.7876303889129,5.51091059616309E-16,-4.50000000000905));
#545=CARTESIAN_POINT('',(23.,0.,0.));
#546=CARTESIAN_POINT('',(6.42473922221737,0.,0.));
#547=CARTESIAN_POINT('',(9.99999999999941,0.,0.));
#548=CARTESIAN_POINT('',(6.42473922221737,0.,0.));
#549=CARTESIAN_POINT('',(4.62593120378903,0.,0.));
#550=CARTESIAN_POINT('',(27.,0.,0.));
#551=CARTESIAN_POINT('',(27.,3.16227766016838,-4.5));
#552=CARTESIAN_POINT('',(23.,3.16227766016838,-4.5));
#553=CARTESIAN_POINT('',(23.,0.,0.));
#554=CARTESIAN_POINT('',(11.7876303888913,18.,-4.5));
#555=CARTESIAN_POINT('',(23.,11.25,-4.5));
#556=CARTESIAN_POINT('',(10.,18.,-3.));
#557=CARTESIAN_POINT('',(-8.67361737988404E-16,4.33680868994202E-16,0.));
#558=CARTESIAN_POINT('',(-8.67361737988404E-16,4.33680868994202E-16,4.));
#559=CARTESIAN_POINT('',(-3.85461087530059,6.88894121536573E-16,4.00000000000061));
#560=CARTESIAN_POINT('',(-8.67361737988404E-16,4.33680868994202E-16,0.));
#561=CARTESIAN_POINT('',(-8.67361737988404E-16,4.33680868994202E-16,-4.));
#562=CARTESIAN_POINT('',(3.85461087530059,5.38340516289355E-16,-4.00000000000061));
#563=CARTESIAN_POINT('',(5.555,-18.,-4.));
#564=CARTESIAN_POINT('',(5.555,18.,4.));
#565=CARTESIAN_POINT('',(23.,4.5,0.));
#566=CARTESIAN_POINT('',(26.621,0.,0.));
#567=CARTESIAN_POINT('',(26.9621,0.,-1.96210000000174));
#568=DIRECTION('',(1.,0.,0.));
#569=DIRECTION('',(0.,0.,-866.0254037844));
#570=DIRECTION('',(-0.499999999997054,0.,0.86602540378614));
#571=DIRECTION('',(1.,0.,0.));
#572=DIRECTION('',(0.,0.,-1.621));
#573=DIRECTION('',(-1.,0.,0.));
#574=DIRECTION('',(0.,0.,-1.621));
#575=DIRECTION('',(1.,0.,0.));
#576=DIRECTION('',(-1.,0.,0.));
#577=DIRECTION('',(0.,0.,-1.621));
#578=DIRECTION('',(0.,0.,1.));
#579=DIRECTION('',(-2.5,0.,0.));
#580=DIRECTION('',(0.,0.,-1.));
#581=DIRECTION('',(0.,0.,1.));
#582=DIRECTION('',(-2.5,0.,0.));
#583=DIRECTION('',(0.,0.,-1.));
#584=DIRECTION('',(-2.5,0.,0.));
#585=DIRECTION('',(0.,0.,-1.));
#586=DIRECTION('',(-2.5,0.,0.));
#587=DIRECTION('',(1.,0.,0.));
#588=DIRECTION('',(0.,1.,0.));
#589=DIRECTION('',(0.,0.,1.));
#590=DIRECTION('',(0.,9.,0.));
#591=DIRECTION('',(-1.,0.,0.));
#592=DIRECTION('',(0.,0.,7.72015288047179));
#593=DIRECTION('',(0.,0.,1.));
#594=DIRECTION('',(0.,-8.48528137423857,0.));
#595=DIRECTION('',(-1.,0.,0.));
#596=DIRECTION('',(0.,0.,7.72015288047179));
#597=DIRECTION('',(0.,0.,-1.));
#598=DIRECTION('',(0.,8.48528137423857,0.));
#599=DIRECTION('',(-1.,0.,0.));
#600=DIRECTION('',(0.,0.,7.72015288047179));
#601=DIRECTION('',(-1.,0.,0.));
#602=DIRECTION('',(0.,0.,7.7201528805));
#603=DIRECTION('',(-1.,0.,0.));
#604=DIRECTION('',(0.,0.,-4.5));
#605=DIRECTION('',(0.,0.,-1.));
#606=DIRECTION('',(0.,0.,-1.));
#607=DIRECTION('',(0.,-4.67525667744563,0.));
#608=DIRECTION('',(0.,1.,0.));
#609=DIRECTION('',(0.,0.,1.));
#610=DIRECTION('',(0.,0.,1.));
#611=DIRECTION('',(0.,4.67525667744563,0.));
#612=DIRECTION('',(0.,-1.,0.));
#613=DIRECTION('',(-0.642787609686539,0.,0.766044443118978));
#614=DIRECTION('',(-0.642787609686539,0.,0.766044443118978));
#615=DIRECTION('',(-5.36289116667395,0.,-4.5));
#616=DIRECTION('',(0.,0.,1.));
#617=DIRECTION('',(0.,1.,0.));
#618=DIRECTION('',(1.,0.,0.));
#619=DIRECTION('',(0.,-1.,0.));
#620=DIRECTION('',(-1.,0.,0.));
#621=DIRECTION('',(0.,1.,0.));
#622=DIRECTION('',(-1.,0.,0.));
#623=DIRECTION('',(1.,0.,0.));
#624=DIRECTION('',(0.,0.,-2.00000000000194));
#625=DIRECTION('',(0.,-1.,0.));
#626=DIRECTION('',(-1.,0.,0.));
#627=DIRECTION('',(0.,0.,-5.5));
#628=DIRECTION('',(-1.,0.,0.));
#629=DIRECTION('',(0.,0.,-5.5));
#630=DIRECTION('',(-1.,0.,0.));
#631=DIRECTION('',(0.,0.,-5.5));
#632=DIRECTION('',(-1.,0.,0.));
#633=DIRECTION('',(0.,0.,-5.5));
#634=DIRECTION('',(1.,0.,0.));
#635=DIRECTION('',(1.,0.,0.));
#636=DIRECTION('',(1.,0.,0.));
#637=DIRECTION('',(0.,0.,-4.5));
#638=DIRECTION('',(0.,1.,0.));
#639=DIRECTION('',(-1.,0.,0.));
#640=DIRECTION('',(0.,0.,-4.5));
#641=DIRECTION('',(1.,0.,0.));
#642=DIRECTION('',(-1.,0.,0.));
#643=DIRECTION('',(0.,0.,-4.5));
#644=DIRECTION('',(0.642787609686539,0.,0.766044443118978));
#645=DIRECTION('',(5.36289116667395,0.,-4.5));
#646=DIRECTION('',(1.,0.,0.));
#647=DIRECTION('',(0.,0.,-4.5));
#648=DIRECTION('',(0.642787609686539,0.,0.766044443118978));
#649=DIRECTION('',(5.36289116667395,0.,-4.5));
#650=DIRECTION('',(-1.,0.,0.));
#651=DIRECTION('',(0.,0.,7.7201528805));
#652=DIRECTION('',(-1.,0.,0.));
#653=DIRECTION('',(0.,0.,-5.5));
#654=DIRECTION('',(-1.,0.,0.));
#655=DIRECTION('',(-1.,0.,0.));
#656=DIRECTION('',(0.,0.,-5.5));
#657=DIRECTION('',(0.,0.,-1.));
#658=DIRECTION('',(0.,-1.,0.));
#659=DIRECTION('',(-0.642787609686539,0.,-0.766044443118978));
#660=DIRECTION('',(1.,0.,0.));
#661=DIRECTION('',(0.,1.,0.));
#662=DIRECTION('',(0.,0.,1.));
#663=DIRECTION('',(0.,-3.85461087530246,0.));
#664=DIRECTION('',(1.,0.,0.));
#665=DIRECTION('',(0.,1.,0.));
#666=DIRECTION('',(0.,0.,-1.));
#667=DIRECTION('',(0.,3.85461087530246,0.));
#668=DIRECTION('',(0.,0.,1.));
#669=DIRECTION('',(0.,0.,-1.));
#670=DIRECTION('',(1.,0.,0.));
#671=DIRECTION('',(1.,0.,0.));
#672=DIRECTION('',(0.,0.,-1.621));
#673=DIRECTION('',(-0.707106781184743,0.,0.707106781188352));
#674=CONICAL_SURFACE('',#407,866.0254037844,1.0471975512);
#675=CONICAL_SURFACE('',#422,7.7201528805,0.539832544);
#676=CONICAL_SURFACE('',#444,7.7201528805,0.539832544);
#677=CONICAL_SURFACE('',#456,1.621,0.7853981634);
#678=CLOSED_SHELL('',(#384,#385,#386,#387,#388,#389,#390,#391,#392,#393,
#394,#395,#396,#397,#398,#399,#400,#401,#402,#403,#404,#405,#406));
#679=MANIFOLD_SOLID_BREP('',#678);
#680=ADVANCED_BREP_SHAPE_REPRESENTATION('',(#679),#63);
ENDSEC;
END-ISO-10303-21;
