ISO-10303-21;
HEADER;
/* Generated by software containing ST-Developer
 * from STEP Tools, Inc. (www.steptools.com) 
 */

FILE_DESCRIPTION(
/* description */ ('Alibre Inc.'),
/* implementation_level */ '2;1');

FILE_NAME(
/* name */ 'export-1E03D5D0-9F85-4AFB-B651-61381D9F8BBC',
/* time_stamp */ '2021-04-14T16:59:41+02:00',
/* author */ (''),
/* organization */ (''),
/* preprocessor_version */ 'ST-DEVELOPER v17',
/* originating_system */ 'Alibre',
/* authorisation */ '');

FILE_SCHEMA (('AUTOMOTIVE_DESIGN'));
ENDSEC;

DATA;
#10=STYLED_ITEM('NAME_0',(#49),#751);
#11=STYLED_ITEM('NAME_0',(#50),#435);
#12=STYLED_ITEM('NAME_0',(#50),#436);
#13=STYLED_ITEM('NAME_0',(#50),#437);
#14=STYLED_ITEM('NAME_0',(#50),#438);
#15=STYLED_ITEM('NAME_0',(#50),#439);
#16=STYLED_ITEM('NAME_0',(#50),#440);
#17=STYLED_ITEM('NAME_0',(#50),#441);
#18=STYLED_ITEM('NAME_0',(#50),#442);
#19=STYLED_ITEM('NAME_0',(#50),#443);
#20=STYLED_ITEM('NAME_0',(#50),#444);
#21=STYLED_ITEM('NAME_0',(#50),#445);
#22=STYLED_ITEM('NAME_0',(#50),#446);
#23=STYLED_ITEM('NAME_0',(#50),#447);
#24=STYLED_ITEM('NAME_0',(#50),#448);
#25=STYLED_ITEM('NAME_0',(#50),#449);
#26=STYLED_ITEM('NAME_0',(#50),#450);
#27=STYLED_ITEM('NAME_0',(#50),#451);
#28=STYLED_ITEM('NAME_0',(#50),#452);
#29=STYLED_ITEM('NAME_0',(#50),#453);
#30=STYLED_ITEM('NAME_0',(#50),#454);
#31=STYLED_ITEM('NAME_0',(#50),#455);
#32=STYLED_ITEM('NAME_0',(#50),#456);
#33=STYLED_ITEM('NAME_0',(#50),#457);
#34=STYLED_ITEM('NAME_0',(#50),#458);
#35=STYLED_ITEM('NAME_0',(#50),#459);
#36=MECHANICAL_DESIGN_GEOMETRIC_PRESENTATION_REPRESENTATION('NAME_0',(#10,
#11,#12,#13,#14,#15,#16,#17,#18,#19,#20,#21,#22,#23,#24,#25,#26,#27,#28,
#29,#30,#31,#32,#33,#34,#35),#65);
#37=COLOUR_RGB('',0.882352941176471,0.882352941176471,0.882352941176471);
#38=COLOUR_RGB('',0.686274509803922,0.686274509803922,0.686274509803922);
#39=FILL_AREA_STYLE_COLOUR('NAME_0',#37);
#40=FILL_AREA_STYLE_COLOUR('NAME_0',#38);
#41=FILL_AREA_STYLE('NAME_0',(#39));
#42=FILL_AREA_STYLE('NAME_0',(#40));
#43=SURFACE_STYLE_FILL_AREA(#41);
#44=SURFACE_STYLE_FILL_AREA(#42);
#45=SURFACE_SIDE_STYLE('NAME_0',(#43));
#46=SURFACE_SIDE_STYLE('NAME_0',(#44));
#47=SURFACE_STYLE_USAGE(.POSITIVE.,#45);
#48=SURFACE_STYLE_USAGE(.POSITIVE.,#46);
#49=PRESENTATION_STYLE_ASSIGNMENT((#47));
#50=PRESENTATION_STYLE_ASSIGNMENT((#48));
#51=PRODUCT_DEFINITION_CONTEXT('part definition',#58,'design');
#52=SHAPE_DEFINITION_REPRESENTATION(#53,#752);
#53=PRODUCT_DEFINITION_SHAPE('PRODUCT_VERSION_ID',
'PRODUCT_VERSION_DESCR',#54);
#54=PRODUCT_DEFINITION('PRODUCT_VERSION_ID','PRODUCT_VERSION_DESCR',#55,
#51);
#55=PRODUCT_DEFINITION_FORMATION_WITH_SPECIFIED_SOURCE(
'PRODUCT_VERSION_ID','PRODUCT_VERSION_DESCR',#60,.MADE.);
#56=PRODUCT_RELATED_PRODUCT_CATEGORY('part','part',(#60));
#57=APPLICATION_PROTOCOL_DEFINITION('Draft International Standard',
'automotive_design',1994,#58);
#58=APPLICATION_CONTEXT('automotive_Design');
#59=PRODUCT_CONTEXT('3D Mechanical Parts',#58,'mechanical');
#60=PRODUCT('_W0950120020-11(old)','5552 W0950120020 Fork GK-M M6x1.00',
'',(#59));
#61=(
LENGTH_UNIT()
NAMED_UNIT(*)
SI_UNIT(.MILLI.,.METRE.)
);
#62=(
NAMED_UNIT(*)
PLANE_ANGLE_UNIT()
SI_UNIT($,.RADIAN.)
);
#63=(
NAMED_UNIT(*)
SI_UNIT($,.STERADIAN.)
SOLID_ANGLE_UNIT()
);
#64=UNCERTAINTY_MEASURE_WITH_UNIT(LENGTH_MEASURE(1.E-6),#61,
'DISTANCE_ACCURACY_VALUE',
'Maximum model space distance between geometric entities at asserted c
onnectivities');
#65=(
GEOMETRIC_REPRESENTATION_CONTEXT(3)
GLOBAL_UNCERTAINTY_ASSIGNED_CONTEXT((#64))
GLOBAL_UNIT_ASSIGNED_CONTEXT((#63,#62,#61))
REPRESENTATION_CONTEXT('ID1','3D')
);
#66=CONICAL_SURFACE('',#479,3.,0.7853981634);
#67=CONICAL_SURFACE('',#493,2.4585,0.7853981634);
#68=CYLINDRICAL_SURFACE('',#478,3.);
#69=CYLINDRICAL_SURFACE('',#481,3.);
#70=CYLINDRICAL_SURFACE('',#485,3.);
#71=CYLINDRICAL_SURFACE('',#491,2.4585);
#72=CYLINDRICAL_SURFACE('',#497,5.);
#73=VECTOR('',#524,1.);
#74=VECTOR('',#525,1.);
#75=VECTOR('',#526,1.);
#76=VECTOR('',#528,1.);
#77=VECTOR('',#529,1.);
#78=VECTOR('',#530,1.);
#79=VECTOR('',#531,1.);
#80=VECTOR('',#533,1.);
#81=VECTOR('',#536,1.);
#82=VECTOR('',#537,1.);
#83=VECTOR('',#541,1.);
#84=VECTOR('',#542,1.);
#85=VECTOR('',#543,1.);
#86=VECTOR('',#549,1.);
#87=VECTOR('',#550,1.);
#88=VECTOR('',#553,1.);
#89=VECTOR('',#556,1.);
#90=VECTOR('',#561,1.);
#91=VECTOR('',#570,1.);
#92=VECTOR('',#581,1.);
#93=VECTOR('',#586,1.);
#94=VECTOR('',#594,1.);
#95=VECTOR('',#603,1.);
#96=VECTOR('',#604,1.);
#97=VECTOR('',#605,1.);
#98=VECTOR('',#606,1.);
#99=VECTOR('',#608,1.);
#100=VECTOR('',#609,1.);
#101=VECTOR('',#610,1.);
#102=VECTOR('',#611,1.);
#103=VECTOR('',#613,1.);
#104=VECTOR('',#615,1.);
#105=VECTOR('',#617,1.);
#106=LINE('',#635,#73);
#107=LINE('',#637,#74);
#108=LINE('',#639,#75);
#109=LINE('',#641,#76);
#110=LINE('',#644,#77);
#111=LINE('',#646,#78);
#112=LINE('',#648,#79);
#113=LINE('',#650,#80);
#114=LINE('',#653,#81);
#115=LINE('',#655,#82);
#116=LINE('',#659,#83);
#117=LINE('',#661,#84);
#118=LINE('',#663,#85);
#119=LINE('',#669,#86);
#120=LINE('',#670,#87);
#121=LINE('',#672,#88);
#122=LINE('',#674,#89);
#123=LINE('',#679,#90);
#124=LINE('',#687,#91);
#125=LINE('',#696,#92);
#126=LINE('',#700,#93);
#127=LINE('',#706,#94);
#128=LINE('',#714,#95);
#129=LINE('',#716,#96);
#130=LINE('',#718,#97);
#131=LINE('',#720,#98);
#132=LINE('',#722,#99);
#133=LINE('',#724,#100);
#134=LINE('',#726,#101);
#135=LINE('',#728,#102);
#136=LINE('',#730,#103);
#137=LINE('',#732,#104);
#138=LINE('',#734,#105);
#139=TOROIDAL_SURFACE('',#462,2.7,0.3);
#140=TOROIDAL_SURFACE('',#489,2.7,0.3);
#141=TOROIDAL_SURFACE('',#494,4.8,0.2);
#142=TOROIDAL_SURFACE('',#499,5.2,0.2);
#143=VERTEX_POINT('',#621);
#144=VERTEX_POINT('',#624);
#145=VERTEX_POINT('',#628);
#146=VERTEX_POINT('',#630);
#147=VERTEX_POINT('',#633);
#148=VERTEX_POINT('',#634);
#149=VERTEX_POINT('',#636);
#150=VERTEX_POINT('',#638);
#151=VERTEX_POINT('',#642);
#152=VERTEX_POINT('',#643);
#153=VERTEX_POINT('',#645);
#154=VERTEX_POINT('',#647);
#155=VERTEX_POINT('',#651);
#156=VERTEX_POINT('',#654);
#157=VERTEX_POINT('',#658);
#158=VERTEX_POINT('',#660);
#159=VERTEX_POINT('',#662);
#160=VERTEX_POINT('',#666);
#161=VERTEX_POINT('',#667);
#162=VERTEX_POINT('',#675);
#163=VERTEX_POINT('',#677);
#164=VERTEX_POINT('',#680);
#165=VERTEX_POINT('',#681);
#166=VERTEX_POINT('',#684);
#167=VERTEX_POINT('',#688);
#168=VERTEX_POINT('',#692);
#169=VERTEX_POINT('',#697);
#170=VERTEX_POINT('',#703);
#171=VERTEX_POINT('',#707);
#172=VERTEX_POINT('',#711);
#173=VERTEX_POINT('',#715);
#174=VERTEX_POINT('',#717);
#175=VERTEX_POINT('',#719);
#176=VERTEX_POINT('',#723);
#177=VERTEX_POINT('',#725);
#178=VERTEX_POINT('',#727);
#179=CIRCLE('',#461,2.7);
#180=CIRCLE('',#463,0.3);
#181=CIRCLE('',#464,3.);
#182=CIRCLE('',#466,3.);
#183=CIRCLE('',#467,4.8);
#184=CIRCLE('',#469,3.);
#185=CIRCLE('',#472,3.);
#186=CIRCLE('',#474,3.);
#187=CIRCLE('',#476,3.);
#188=CIRCLE('',#477,3.);
#189=CIRCLE('',#480,2.4585);
#190=CIRCLE('',#482,3.);
#191=CIRCLE('',#483,3.);
#192=CIRCLE('',#484,3.);
#193=CIRCLE('',#486,3.);
#194=CIRCLE('',#488,2.7);
#195=CIRCLE('',#490,0.3);
#196=CIRCLE('',#492,2.4585);
#197=CIRCLE('',#495,0.2);
#198=CIRCLE('',#496,5.);
#199=CIRCLE('',#498,5.);
#200=CIRCLE('',#500,0.2);
#201=CIRCLE('',#501,5.2);
#202=EDGE_CURVE('',#143,#143,#179,.T.);
#203=EDGE_CURVE('',#144,#143,#180,.T.);
#204=EDGE_CURVE('',#144,#144,#181,.T.);
#205=EDGE_CURVE('',#145,#145,#182,.T.);
#206=EDGE_CURVE('',#146,#146,#183,.T.);
#207=EDGE_CURVE('',#147,#148,#184,.T.);
#208=EDGE_CURVE('',#148,#149,#106,.T.);
#209=EDGE_CURVE('',#149,#150,#107,.T.);
#210=EDGE_CURVE('',#147,#150,#108,.T.);
#211=EDGE_CURVE('',#151,#152,#109,.T.);
#212=EDGE_CURVE('',#153,#152,#110,.T.);
#213=EDGE_CURVE('',#154,#153,#111,.T.);
#214=EDGE_CURVE('',#154,#151,#112,.T.);
#215=EDGE_CURVE('',#155,#148,#113,.T.);
#216=EDGE_CURVE('',#148,#147,#185,.T.);
#217=EDGE_CURVE('',#156,#147,#114,.T.);
#218=EDGE_CURVE('',#155,#156,#115,.T.);
#219=EDGE_CURVE('',#157,#157,#186,.T.);
#220=EDGE_CURVE('',#150,#158,#116,.T.);
#221=EDGE_CURVE('',#159,#158,#117,.T.);
#222=EDGE_CURVE('',#156,#159,#118,.T.);
#223=EDGE_CURVE('',#160,#161,#187,.T.);
#224=EDGE_CURVE('',#161,#160,#188,.T.);
#225=EDGE_CURVE('',#152,#149,#119,.T.);
#226=EDGE_CURVE('',#153,#155,#120,.T.);
#227=EDGE_CURVE('',#160,#157,#121,.T.);
#228=EDGE_CURVE('',#147,#162,#122,.T.);
#229=EDGE_CURVE('',#162,#163,#189,.T.);
#230=EDGE_CURVE('',#163,#162,#189,.T.);
#231=EDGE_CURVE('',#164,#165,#123,.T.);
#232=EDGE_CURVE('',#165,#165,#190,.T.);
#233=EDGE_CURVE('',#164,#166,#191,.T.);
#234=EDGE_CURVE('',#166,#164,#192,.T.);
#235=EDGE_CURVE('',#144,#167,#124,.T.);
#236=EDGE_CURVE('',#167,#167,#193,.T.);
#237=EDGE_CURVE('',#168,#168,#194,.T.);
#238=EDGE_CURVE('',#168,#165,#195,.T.);
#239=EDGE_CURVE('',#163,#169,#125,.T.);
#240=EDGE_CURVE('',#169,#169,#196,.T.);
#241=EDGE_CURVE('',#145,#169,#126,.T.);
#242=EDGE_CURVE('',#146,#170,#197,.T.);
#243=EDGE_CURVE('',#170,#170,#198,.T.);
#244=EDGE_CURVE('',#171,#170,#127,.T.);
#245=EDGE_CURVE('',#171,#171,#199,.T.);
#246=EDGE_CURVE('',#172,#171,#200,.T.);
#247=EDGE_CURVE('',#172,#172,#201,.T.);
#248=EDGE_CURVE('',#159,#173,#128,.T.);
#249=EDGE_CURVE('',#173,#174,#129,.T.);
#250=EDGE_CURVE('',#174,#175,#130,.T.);
#251=EDGE_CURVE('',#175,#154,#131,.T.);
#252=EDGE_CURVE('',#176,#151,#132,.T.);
#253=EDGE_CURVE('',#177,#176,#133,.T.);
#254=EDGE_CURVE('',#178,#177,#134,.T.);
#255=EDGE_CURVE('',#158,#178,#135,.T.);
#256=EDGE_CURVE('',#175,#176,#136,.T.);
#257=EDGE_CURVE('',#174,#177,#137,.T.);
#258=EDGE_CURVE('',#173,#178,#138,.T.);
#259=ORIENTED_EDGE('',*,*,#202,.F.);
#260=ORIENTED_EDGE('',*,*,#203,.T.);
#261=ORIENTED_EDGE('',*,*,#202,.T.);
#262=ORIENTED_EDGE('',*,*,#203,.F.);
#263=ORIENTED_EDGE('',*,*,#204,.F.);
#264=ORIENTED_EDGE('',*,*,#205,.F.);
#265=ORIENTED_EDGE('',*,*,#206,.T.);
#266=ORIENTED_EDGE('',*,*,#207,.T.);
#267=ORIENTED_EDGE('',*,*,#208,.T.);
#268=ORIENTED_EDGE('',*,*,#209,.T.);
#269=ORIENTED_EDGE('',*,*,#210,.F.);
#270=ORIENTED_EDGE('',*,*,#211,.T.);
#271=ORIENTED_EDGE('',*,*,#212,.F.);
#272=ORIENTED_EDGE('',*,*,#213,.F.);
#273=ORIENTED_EDGE('',*,*,#214,.T.);
#274=ORIENTED_EDGE('',*,*,#215,.T.);
#275=ORIENTED_EDGE('',*,*,#216,.T.);
#276=ORIENTED_EDGE('',*,*,#217,.F.);
#277=ORIENTED_EDGE('',*,*,#218,.F.);
#278=ORIENTED_EDGE('',*,*,#219,.F.);
#279=ORIENTED_EDGE('',*,*,#220,.T.);
#280=ORIENTED_EDGE('',*,*,#221,.F.);
#281=ORIENTED_EDGE('',*,*,#222,.F.);
#282=ORIENTED_EDGE('',*,*,#217,.T.);
#283=ORIENTED_EDGE('',*,*,#210,.T.);
#284=ORIENTED_EDGE('',*,*,#223,.F.);
#285=ORIENTED_EDGE('',*,*,#224,.F.);
#286=ORIENTED_EDGE('',*,*,#225,.T.);
#287=ORIENTED_EDGE('',*,*,#208,.F.);
#288=ORIENTED_EDGE('',*,*,#215,.F.);
#289=ORIENTED_EDGE('',*,*,#226,.F.);
#290=ORIENTED_EDGE('',*,*,#212,.T.);
#291=ORIENTED_EDGE('',*,*,#227,.T.);
#292=ORIENTED_EDGE('',*,*,#219,.T.);
#293=ORIENTED_EDGE('',*,*,#227,.F.);
#294=ORIENTED_EDGE('',*,*,#223,.T.);
#295=ORIENTED_EDGE('',*,*,#224,.T.);
#296=ORIENTED_EDGE('',*,*,#228,.F.);
#297=ORIENTED_EDGE('',*,*,#216,.F.);
#298=ORIENTED_EDGE('',*,*,#207,.F.);
#299=ORIENTED_EDGE('',*,*,#228,.T.);
#300=ORIENTED_EDGE('',*,*,#229,.T.);
#301=ORIENTED_EDGE('',*,*,#230,.T.);
#302=ORIENTED_EDGE('',*,*,#231,.T.);
#303=ORIENTED_EDGE('',*,*,#232,.F.);
#304=ORIENTED_EDGE('',*,*,#231,.F.);
#305=ORIENTED_EDGE('',*,*,#233,.T.);
#306=ORIENTED_EDGE('',*,*,#234,.T.);
#307=ORIENTED_EDGE('',*,*,#235,.T.);
#308=ORIENTED_EDGE('',*,*,#236,.T.);
#309=ORIENTED_EDGE('',*,*,#235,.F.);
#310=ORIENTED_EDGE('',*,*,#204,.T.);
#311=ORIENTED_EDGE('',*,*,#237,.T.);
#312=ORIENTED_EDGE('',*,*,#238,.T.);
#313=ORIENTED_EDGE('',*,*,#232,.T.);
#314=ORIENTED_EDGE('',*,*,#238,.F.);
#315=ORIENTED_EDGE('',*,*,#237,.F.);
#316=ORIENTED_EDGE('',*,*,#239,.F.);
#317=ORIENTED_EDGE('',*,*,#229,.F.);
#318=ORIENTED_EDGE('',*,*,#230,.F.);
#319=ORIENTED_EDGE('',*,*,#239,.T.);
#320=ORIENTED_EDGE('',*,*,#240,.T.);
#321=ORIENTED_EDGE('',*,*,#241,.F.);
#322=ORIENTED_EDGE('',*,*,#205,.T.);
#323=ORIENTED_EDGE('',*,*,#241,.T.);
#324=ORIENTED_EDGE('',*,*,#240,.F.);
#325=ORIENTED_EDGE('',*,*,#242,.T.);
#326=ORIENTED_EDGE('',*,*,#243,.T.);
#327=ORIENTED_EDGE('',*,*,#242,.F.);
#328=ORIENTED_EDGE('',*,*,#206,.F.);
#329=ORIENTED_EDGE('',*,*,#244,.T.);
#330=ORIENTED_EDGE('',*,*,#243,.F.);
#331=ORIENTED_EDGE('',*,*,#244,.F.);
#332=ORIENTED_EDGE('',*,*,#245,.T.);
#333=ORIENTED_EDGE('',*,*,#246,.F.);
#334=ORIENTED_EDGE('',*,*,#247,.T.);
#335=ORIENTED_EDGE('',*,*,#246,.T.);
#336=ORIENTED_EDGE('',*,*,#245,.F.);
#337=ORIENTED_EDGE('',*,*,#213,.T.);
#338=ORIENTED_EDGE('',*,*,#226,.T.);
#339=ORIENTED_EDGE('',*,*,#218,.T.);
#340=ORIENTED_EDGE('',*,*,#222,.T.);
#341=ORIENTED_EDGE('',*,*,#248,.T.);
#342=ORIENTED_EDGE('',*,*,#249,.T.);
#343=ORIENTED_EDGE('',*,*,#250,.T.);
#344=ORIENTED_EDGE('',*,*,#251,.T.);
#345=ORIENTED_EDGE('',*,*,#211,.F.);
#346=ORIENTED_EDGE('',*,*,#252,.F.);
#347=ORIENTED_EDGE('',*,*,#253,.F.);
#348=ORIENTED_EDGE('',*,*,#254,.F.);
#349=ORIENTED_EDGE('',*,*,#255,.F.);
#350=ORIENTED_EDGE('',*,*,#220,.F.);
#351=ORIENTED_EDGE('',*,*,#209,.F.);
#352=ORIENTED_EDGE('',*,*,#225,.F.);
#353=ORIENTED_EDGE('',*,*,#236,.F.);
#354=ORIENTED_EDGE('',*,*,#252,.T.);
#355=ORIENTED_EDGE('',*,*,#214,.F.);
#356=ORIENTED_EDGE('',*,*,#251,.F.);
#357=ORIENTED_EDGE('',*,*,#256,.T.);
#358=ORIENTED_EDGE('',*,*,#247,.F.);
#359=ORIENTED_EDGE('',*,*,#253,.T.);
#360=ORIENTED_EDGE('',*,*,#256,.F.);
#361=ORIENTED_EDGE('',*,*,#250,.F.);
#362=ORIENTED_EDGE('',*,*,#257,.T.);
#363=ORIENTED_EDGE('',*,*,#233,.F.);
#364=ORIENTED_EDGE('',*,*,#234,.F.);
#365=ORIENTED_EDGE('',*,*,#254,.T.);
#366=ORIENTED_EDGE('',*,*,#257,.F.);
#367=ORIENTED_EDGE('',*,*,#249,.F.);
#368=ORIENTED_EDGE('',*,*,#258,.T.);
#369=ORIENTED_EDGE('',*,*,#255,.T.);
#370=ORIENTED_EDGE('',*,*,#258,.F.);
#371=ORIENTED_EDGE('',*,*,#248,.F.);
#372=ORIENTED_EDGE('',*,*,#221,.T.);
#373=EDGE_LOOP('',(#259));
#374=EDGE_LOOP('',(#260,#261,#262,#263));
#375=EDGE_LOOP('',(#264));
#376=EDGE_LOOP('',(#265));
#377=EDGE_LOOP('',(#266,#267,#268,#269));
#378=EDGE_LOOP('',(#270,#271,#272,#273));
#379=EDGE_LOOP('',(#274,#275,#276,#277));
#380=EDGE_LOOP('',(#278));
#381=EDGE_LOOP('',(#279,#280,#281,#282,#283));
#382=EDGE_LOOP('',(#284,#285));
#383=EDGE_LOOP('',(#286,#287,#288,#289,#290));
#384=EDGE_LOOP('',(#291,#292,#293,#294,#295));
#385=EDGE_LOOP('',(#296,#297,#298,#299,#300,#301));
#386=EDGE_LOOP('',(#302,#303,#304,#305,#306));
#387=EDGE_LOOP('',(#307,#308,#309,#310));
#388=EDGE_LOOP('',(#311));
#389=EDGE_LOOP('',(#312,#313,#314,#315));
#390=EDGE_LOOP('',(#316,#317,#318,#319,#320));
#391=EDGE_LOOP('',(#321,#322,#323,#324));
#392=EDGE_LOOP('',(#325,#326,#327,#328));
#393=EDGE_LOOP('',(#329,#330,#331,#332));
#394=EDGE_LOOP('',(#333,#334,#335,#336));
#395=EDGE_LOOP('',(#337,#338,#339,#340,#341,#342,#343,#344));
#396=EDGE_LOOP('',(#345,#346,#347,#348,#349,#350,#351,#352));
#397=EDGE_LOOP('',(#353));
#398=EDGE_LOOP('',(#354,#355,#356,#357));
#399=EDGE_LOOP('',(#358));
#400=EDGE_LOOP('',(#359,#360,#361,#362));
#401=EDGE_LOOP('',(#363,#364));
#402=EDGE_LOOP('',(#365,#366,#367,#368));
#403=EDGE_LOOP('',(#369,#370,#371,#372));
#404=FACE_BOUND('',#373,.T.);
#405=FACE_BOUND('',#374,.T.);
#406=FACE_BOUND('',#375,.T.);
#407=FACE_BOUND('',#376,.T.);
#408=FACE_BOUND('',#377,.T.);
#409=FACE_BOUND('',#378,.T.);
#410=FACE_BOUND('',#379,.T.);
#411=FACE_BOUND('',#380,.T.);
#412=FACE_BOUND('',#381,.T.);
#413=FACE_BOUND('',#382,.T.);
#414=FACE_BOUND('',#383,.T.);
#415=FACE_BOUND('',#384,.T.);
#416=FACE_BOUND('',#385,.T.);
#417=FACE_BOUND('',#386,.T.);
#418=FACE_BOUND('',#387,.T.);
#419=FACE_BOUND('',#388,.T.);
#420=FACE_BOUND('',#389,.T.);
#421=FACE_BOUND('',#390,.T.);
#422=FACE_BOUND('',#391,.T.);
#423=FACE_BOUND('',#392,.T.);
#424=FACE_BOUND('',#393,.T.);
#425=FACE_BOUND('',#394,.T.);
#426=FACE_BOUND('',#395,.T.);
#427=FACE_BOUND('',#396,.T.);
#428=FACE_BOUND('',#397,.T.);
#429=FACE_BOUND('',#398,.T.);
#430=FACE_BOUND('',#399,.T.);
#431=FACE_BOUND('',#400,.T.);
#432=FACE_BOUND('',#401,.T.);
#433=FACE_BOUND('',#402,.T.);
#434=FACE_BOUND('',#403,.T.);
#435=ADVANCED_FACE('',(#404),#736,.F.);
#436=ADVANCED_FACE('',(#405),#139,.T.);
#437=ADVANCED_FACE('',(#406,#407),#737,.F.);
#438=ADVANCED_FACE('',(#408),#738,.F.);
#439=ADVANCED_FACE('',(#409),#739,.F.);
#440=ADVANCED_FACE('',(#410),#740,.F.);
#441=ADVANCED_FACE('',(#411,#412),#741,.F.);
#442=ADVANCED_FACE('',(#413,#414),#742,.F.);
#443=ADVANCED_FACE('',(#415),#68,.T.);
#444=ADVANCED_FACE('',(#416),#66,.F.);
#445=ADVANCED_FACE('',(#417),#69,.T.);
#446=ADVANCED_FACE('',(#418),#70,.T.);
#447=ADVANCED_FACE('',(#419),#743,.F.);
#448=ADVANCED_FACE('',(#420),#140,.T.);
#449=ADVANCED_FACE('',(#421),#71,.F.);
#450=ADVANCED_FACE('',(#422),#67,.F.);
#451=ADVANCED_FACE('',(#423),#141,.T.);
#452=ADVANCED_FACE('',(#424),#72,.T.);
#453=ADVANCED_FACE('',(#425),#142,.F.);
#454=ADVANCED_FACE('',(#426),#744,.T.);
#455=ADVANCED_FACE('',(#427),#745,.F.);
#456=ADVANCED_FACE('',(#428,#429),#746,.F.);
#457=ADVANCED_FACE('',(#430,#431),#747,.F.);
#458=ADVANCED_FACE('',(#432,#433),#748,.F.);
#459=ADVANCED_FACE('',(#434),#749,.F.);
#460=AXIS2_PLACEMENT_3D('',#619,#508,$);
#461=AXIS2_PLACEMENT_3D('',#620,#509,#510);
#462=AXIS2_PLACEMENT_3D('',#622,#511,$);
#463=AXIS2_PLACEMENT_3D('',#623,#512,#513);
#464=AXIS2_PLACEMENT_3D('',#625,#514,#515);
#465=AXIS2_PLACEMENT_3D('',#626,#516,$);
#466=AXIS2_PLACEMENT_3D('',#627,#517,#518);
#467=AXIS2_PLACEMENT_3D('',#629,#519,#520);
#468=AXIS2_PLACEMENT_3D('',#631,#521,$);
#469=AXIS2_PLACEMENT_3D('',#632,#522,#523);
#470=AXIS2_PLACEMENT_3D('',#640,#527,$);
#471=AXIS2_PLACEMENT_3D('',#649,#532,$);
#472=AXIS2_PLACEMENT_3D('',#652,#534,#535);
#473=AXIS2_PLACEMENT_3D('',#656,#538,$);
#474=AXIS2_PLACEMENT_3D('',#657,#539,#540);
#475=AXIS2_PLACEMENT_3D('',#664,#544,$);
#476=AXIS2_PLACEMENT_3D('',#665,#545,#546);
#477=AXIS2_PLACEMENT_3D('',#668,#547,#548);
#478=AXIS2_PLACEMENT_3D('',#671,#551,#552);
#479=AXIS2_PLACEMENT_3D('',#673,#554,#555);
#480=AXIS2_PLACEMENT_3D('',#676,#557,#558);
#481=AXIS2_PLACEMENT_3D('',#678,#559,#560);
#482=AXIS2_PLACEMENT_3D('',#682,#562,#563);
#483=AXIS2_PLACEMENT_3D('',#683,#564,#565);
#484=AXIS2_PLACEMENT_3D('',#685,#566,#567);
#485=AXIS2_PLACEMENT_3D('',#686,#568,#569);
#486=AXIS2_PLACEMENT_3D('',#689,#571,#572);
#487=AXIS2_PLACEMENT_3D('',#690,#573,$);
#488=AXIS2_PLACEMENT_3D('',#691,#574,#575);
#489=AXIS2_PLACEMENT_3D('',#693,#576,$);
#490=AXIS2_PLACEMENT_3D('',#694,#577,#578);
#491=AXIS2_PLACEMENT_3D('',#695,#579,#580);
#492=AXIS2_PLACEMENT_3D('',#698,#582,#583);
#493=AXIS2_PLACEMENT_3D('',#699,#584,#585);
#494=AXIS2_PLACEMENT_3D('',#701,#587,$);
#495=AXIS2_PLACEMENT_3D('',#702,#588,#589);
#496=AXIS2_PLACEMENT_3D('',#704,#590,#591);
#497=AXIS2_PLACEMENT_3D('',#705,#592,#593);
#498=AXIS2_PLACEMENT_3D('',#708,#595,#596);
#499=AXIS2_PLACEMENT_3D('',#709,#597,$);
#500=AXIS2_PLACEMENT_3D('',#710,#598,#599);
#501=AXIS2_PLACEMENT_3D('',#712,#600,#601);
#502=AXIS2_PLACEMENT_3D('',#713,#602,$);
#503=AXIS2_PLACEMENT_3D('',#721,#607,$);
#504=AXIS2_PLACEMENT_3D('',#729,#612,$);
#505=AXIS2_PLACEMENT_3D('',#731,#614,$);
#506=AXIS2_PLACEMENT_3D('',#733,#616,$);
#507=AXIS2_PLACEMENT_3D('',#735,#618,$);
#508=DIRECTION('',(0.,0.,1.));
#509=DIRECTION('',(0.,0.,1.));
#510=DIRECTION('',(2.7,0.,0.));
#511=DIRECTION('',(0.,0.,1.));
#512=DIRECTION('',(0.,1.,0.));
#513=DIRECTION('',(0.3,0.,0.));
#514=DIRECTION('',(0.,0.,1.));
#515=DIRECTION('',(3.,0.,0.));
#516=DIRECTION('',(-1.,0.,0.));
#517=DIRECTION('',(1.,0.,0.));
#518=DIRECTION('',(0.,0.,-3.));
#519=DIRECTION('',(1.,0.,0.));
#520=DIRECTION('',(0.,0.,-4.8));
#521=DIRECTION('',(1.,0.,0.));
#522=DIRECTION('',(1.,0.,0.));
#523=DIRECTION('',(0.,0.,-3.));
#524=DIRECTION('',(0.,-1.,0.));
#525=DIRECTION('',(0.,0.,1.));
#526=DIRECTION('',(0.,-1.,0.));
#527=DIRECTION('',(0.866025403784438,0.,0.5));
#528=DIRECTION('',(-0.500000000000001,0.,0.866025403784438));
#529=DIRECTION('',(0.,-1.,0.));
#530=DIRECTION('',(-0.500000000000001,0.,0.866025403784438));
#531=DIRECTION('',(0.,-1.,0.));
#532=DIRECTION('',(1.,0.,0.));
#533=DIRECTION('',(0.,-1.,0.));
#534=DIRECTION('',(1.,0.,0.));
#535=DIRECTION('',(0.,0.,-3.));
#536=DIRECTION('',(0.,-1.,0.));
#537=DIRECTION('',(0.,0.,1.));
#538=DIRECTION('',(0.,0.,1.));
#539=DIRECTION('',(0.,0.,-1.));
#540=DIRECTION('',(3.,0.,0.));
#541=DIRECTION('',(-1.,0.,0.));
#542=DIRECTION('',(0.,-1.,0.));
#543=DIRECTION('',(-1.,0.,0.));
#544=DIRECTION('',(0.,0.,-1.));
#545=DIRECTION('',(0.,0.,1.));
#546=DIRECTION('',(-3.,0.,0.));
#547=DIRECTION('',(0.,0.,1.));
#548=DIRECTION('',(-3.,0.,0.));
#549=DIRECTION('',(1.,0.,0.));
#550=DIRECTION('',(1.,0.,0.));
#551=DIRECTION('',(0.,0.,-1.));
#552=DIRECTION('',(3.,0.,0.));
#553=DIRECTION('',(0.,0.,1.));
#554=DIRECTION('',(-1.,0.,0.));
#555=DIRECTION('',(0.,0.,3.));
#556=DIRECTION('',(0.707106781184743,0.,-0.707106781188352));
#557=DIRECTION('',(1.,0.,0.));
#558=DIRECTION('',(0.,0.,-2.4585));
#559=DIRECTION('',(0.,0.,-1.));
#560=DIRECTION('',(3.,0.,0.));
#561=DIRECTION('',(0.,0.,1.));
#562=DIRECTION('',(0.,0.,1.));
#563=DIRECTION('',(3.,0.,0.));
#564=DIRECTION('',(0.,0.,1.));
#565=DIRECTION('',(-3.,0.,0.));
#566=DIRECTION('',(0.,0.,1.));
#567=DIRECTION('',(-3.,0.,0.));
#568=DIRECTION('',(0.,0.,-1.));
#569=DIRECTION('',(3.,0.,0.));
#570=DIRECTION('',(0.,0.,1.));
#571=DIRECTION('',(0.,0.,-1.));
#572=DIRECTION('',(3.,0.,0.));
#573=DIRECTION('',(0.,0.,-1.));
#574=DIRECTION('',(0.,0.,1.));
#575=DIRECTION('',(2.7,0.,0.));
#576=DIRECTION('',(0.,0.,1.));
#577=DIRECTION('',(0.,1.,0.));
#578=DIRECTION('',(0.3,0.,0.));
#579=DIRECTION('',(-1.,0.,0.));
#580=DIRECTION('',(0.,0.,-2.4585));
#581=DIRECTION('',(1.,0.,0.));
#582=DIRECTION('',(1.,0.,0.));
#583=DIRECTION('',(0.,0.,-2.4585));
#584=DIRECTION('',(1.,0.,0.));
#585=DIRECTION('',(0.,0.,-2.4585));
#586=DIRECTION('',(-0.707106781184743,0.,0.707106781188352));
#587=DIRECTION('',(1.,0.,0.));
#588=DIRECTION('',(0.,1.,0.));
#589=DIRECTION('',(0.,0.,-0.2));
#590=DIRECTION('',(1.,0.,0.));
#591=DIRECTION('',(0.,0.,-5.));
#592=DIRECTION('',(-1.,0.,0.));
#593=DIRECTION('',(0.,0.,-5.));
#594=DIRECTION('',(1.,0.,0.));
#595=DIRECTION('',(1.,0.,0.));
#596=DIRECTION('',(0.,0.,-5.));
#597=DIRECTION('',(1.,0.,0.));
#598=DIRECTION('',(0.,1.,0.));
#599=DIRECTION('',(0.,0.,-0.2));
#600=DIRECTION('',(1.,0.,0.));
#601=DIRECTION('',(0.,0.,-5.2));
#602=DIRECTION('',(0.,1.,0.));
#603=DIRECTION('',(0.500000000000001,0.,0.866025403784438));
#604=DIRECTION('',(1.,0.,0.));
#605=DIRECTION('',(0.,0.,-1.));
#606=DIRECTION('',(-1.,0.,0.));
#607=DIRECTION('',(0.,1.,0.));
#608=DIRECTION('',(-1.,0.,0.));
#609=DIRECTION('',(0.,0.,-1.));
#610=DIRECTION('',(1.,0.,0.));
#611=DIRECTION('',(0.500000000000001,0.,0.866025403784438));
#612=DIRECTION('',(0.,0.,1.));
#613=DIRECTION('',(0.,-1.,0.));
#614=DIRECTION('',(-1.,0.,2.89120579329468E-16));
#615=DIRECTION('',(0.,-1.,0.));
#616=DIRECTION('',(0.,0.,-1.));
#617=DIRECTION('',(0.,-1.,0.));
#618=DIRECTION('',(0.866025403784439,0.,-0.5));
#619=CARTESIAN_POINT('',(0.,0.,-8.));
#620=CARTESIAN_POINT('',(0.,0.,-8.));
#621=CARTESIAN_POINT('',(2.7,-3.30654635769785E-16,-8.));
#622=CARTESIAN_POINT('',(0.,0.,-7.7));
#623=CARTESIAN_POINT('',(2.7,0.,-7.7));
#624=CARTESIAN_POINT('',(3.,-3.67394039744206E-16,-7.7));
#625=CARTESIAN_POINT('',(0.,0.,-7.7));
#626=CARTESIAN_POINT('',(24.,4.8,0.));
#627=CARTESIAN_POINT('',(24.,0.,0.));
#628=CARTESIAN_POINT('',(23.9999999999993,-4.44089209850063E-16,-3.00000000000138));
#629=CARTESIAN_POINT('',(24.,0.,0.));
#630=CARTESIAN_POINT('',(24.,-5.8783046359073E-16,-4.8));
#631=CARTESIAN_POINT('',(12.,6.,-3.));
#632=CARTESIAN_POINT('',(12.,0.,0.));
#633=CARTESIAN_POINT('',(12.,1.83697019872103E-16,3.));
#634=CARTESIAN_POINT('',(12.,-1.83697019872103E-16,-3.));
#635=CARTESIAN_POINT('',(12.,0.,-3.));
#636=CARTESIAN_POINT('',(12.,-6.,-3.));
#637=CARTESIAN_POINT('',(12.,-6.,-3.));
#638=CARTESIAN_POINT('',(12.,-6.,3.));
#639=CARTESIAN_POINT('',(12.,0.,3.));
#640=CARTESIAN_POINT('',(-5.26794919243112,6.,-6.));
#641=CARTESIAN_POINT('',(-5.26794919243112,-6.,-6.));
#642=CARTESIAN_POINT('',(-5.26794919243112,-6.,-6.));
#643=CARTESIAN_POINT('',(-7.,-6.,-3.));
#644=CARTESIAN_POINT('',(-7.,6.,-3.));
#645=CARTESIAN_POINT('',(-7.,6.,-3.));
#646=CARTESIAN_POINT('',(-5.26794919243112,6.,-6.));
#647=CARTESIAN_POINT('',(-5.26794919243112,6.,-6.));
#648=CARTESIAN_POINT('',(-5.26794919243112,6.,-6.));
#649=CARTESIAN_POINT('',(12.,6.,-3.));
#650=CARTESIAN_POINT('',(12.,6.,-3.));
#651=CARTESIAN_POINT('',(12.,6.,-3.));
#652=CARTESIAN_POINT('',(12.,0.,0.));
#653=CARTESIAN_POINT('',(12.,6.,3.));
#654=CARTESIAN_POINT('',(12.,6.,3.));
#655=CARTESIAN_POINT('',(12.,6.,-3.));
#656=CARTESIAN_POINT('',(12.,6.,3.));
#657=CARTESIAN_POINT('',(0.,0.,3.));
#658=CARTESIAN_POINT('',(3.,3.67394039744206E-16,3.));
#659=CARTESIAN_POINT('',(12.,-6.,3.));
#660=CARTESIAN_POINT('',(-7.,-6.,3.));
#661=CARTESIAN_POINT('',(-7.,6.,3.));
#662=CARTESIAN_POINT('',(-7.,6.,3.));
#663=CARTESIAN_POINT('',(12.,6.,3.));
#664=CARTESIAN_POINT('',(-7.,6.,-3.));
#665=CARTESIAN_POINT('',(0.,0.,-3.));
#666=CARTESIAN_POINT('',(3.,-1.83697019872103E-16,-3.));
#667=CARTESIAN_POINT('',(-3.,1.83697019872103E-16,-3.));
#668=CARTESIAN_POINT('',(0.,0.,-3.));
#669=CARTESIAN_POINT('',(-7.,-6.,-3.));
#670=CARTESIAN_POINT('',(-7.,6.,-3.));
#671=CARTESIAN_POINT('',(0.,0.,8.));
#672=CARTESIAN_POINT('',(3.,0.,-8.));
#673=CARTESIAN_POINT('',(12.,0.,0.));
#674=CARTESIAN_POINT('',(12.59565,0.,2.40434999999696));
#675=CARTESIAN_POINT('',(12.5414999999993,0.,2.45849999999931));
#676=CARTESIAN_POINT('',(12.5415,0.,0.));
#677=CARTESIAN_POINT('',(12.5414999999993,2.16924279193234E-12,-2.45849999999931));
#678=CARTESIAN_POINT('',(0.,0.,8.));
#679=CARTESIAN_POINT('',(3.,0.,5.7));
#680=CARTESIAN_POINT('',(3.,-1.83697019872103E-16,6.));
#681=CARTESIAN_POINT('',(3.,-3.67394039744206E-16,7.7));
#682=CARTESIAN_POINT('',(0.,0.,7.7));
#683=CARTESIAN_POINT('',(0.,0.,6.));
#684=CARTESIAN_POINT('',(-3.,1.83697019872103E-16,6.));
#685=CARTESIAN_POINT('',(0.,0.,6.));
#686=CARTESIAN_POINT('',(0.,0.,8.));
#687=CARTESIAN_POINT('',(3.,0.,-21.7));
#688=CARTESIAN_POINT('',(3.,3.67394039744206E-16,-6.));
#689=CARTESIAN_POINT('',(0.,0.,-6.));
#690=CARTESIAN_POINT('',(2.7,0.,8.));
#691=CARTESIAN_POINT('',(0.,0.,8.));
#692=CARTESIAN_POINT('',(2.7,-3.30654635769785E-16,8.));
#693=CARTESIAN_POINT('',(0.,0.,7.7));
#694=CARTESIAN_POINT('',(2.7,0.,7.7));
#695=CARTESIAN_POINT('',(24.,0.,0.));
#696=CARTESIAN_POINT('',(12.,0.,-2.4585));
#697=CARTESIAN_POINT('',(23.4585,-3.01079415570377E-16,-2.4585));
#698=CARTESIAN_POINT('',(23.4585,0.,0.));
#699=CARTESIAN_POINT('',(23.4585,0.,0.));
#700=CARTESIAN_POINT('',(23.94585,0.,-2.94585000000249));
#701=CARTESIAN_POINT('',(23.8,0.,0.));
#702=CARTESIAN_POINT('',(23.8,0.,-4.8));
#703=CARTESIAN_POINT('',(23.8,-6.12323399573677E-16,-5.));
#704=CARTESIAN_POINT('',(23.8,0.,0.));
#705=CARTESIAN_POINT('',(24.,0.,0.));
#706=CARTESIAN_POINT('',(15.,0.,-5.));
#707=CARTESIAN_POINT('',(15.2,-6.12323399573677E-16,-5.));
#708=CARTESIAN_POINT('',(15.2,0.,0.));
#709=CARTESIAN_POINT('',(15.2,0.,0.));
#710=CARTESIAN_POINT('',(15.2,0.,-5.2));
#711=CARTESIAN_POINT('',(15.,-6.36816335556624E-16,-5.2));
#712=CARTESIAN_POINT('',(15.,0.,5.78241158658937E-17));
#713=CARTESIAN_POINT('',(0.,6.,0.));
#714=CARTESIAN_POINT('',(-7.,6.,3.));
#715=CARTESIAN_POINT('',(-5.26794919243112,6.,6.));
#716=CARTESIAN_POINT('',(-5.26794919243112,6.,6.));
#717=CARTESIAN_POINT('',(15.,6.,6.));
#718=CARTESIAN_POINT('',(15.,6.,6.));
#719=CARTESIAN_POINT('',(15.,6.,-6.));
#720=CARTESIAN_POINT('',(15.,6.,-6.));
#721=CARTESIAN_POINT('',(0.,-6.,0.));
#722=CARTESIAN_POINT('',(15.,-6.,-6.));
#723=CARTESIAN_POINT('',(15.,-6.,-6.));
#724=CARTESIAN_POINT('',(15.,-6.,6.));
#725=CARTESIAN_POINT('',(15.,-6.,6.));
#726=CARTESIAN_POINT('',(-5.26794919243112,-6.,6.));
#727=CARTESIAN_POINT('',(-5.26794919243112,-6.,6.));
#728=CARTESIAN_POINT('',(-7.,-6.,3.));
#729=CARTESIAN_POINT('',(15.,6.,-6.));
#730=CARTESIAN_POINT('',(15.,6.,-6.));
#731=CARTESIAN_POINT('',(15.,6.,6.));
#732=CARTESIAN_POINT('',(15.,6.,6.));
#733=CARTESIAN_POINT('',(-5.26794919243112,6.,6.));
#734=CARTESIAN_POINT('',(-5.26794919243112,6.,6.));
#735=CARTESIAN_POINT('',(-7.,6.,3.));
#736=PLANE('',#460);
#737=PLANE('',#465);
#738=PLANE('',#468);
#739=PLANE('',#470);
#740=PLANE('',#471);
#741=PLANE('',#473);
#742=PLANE('',#475);
#743=PLANE('',#487);
#744=PLANE('',#502);
#745=PLANE('',#503);
#746=PLANE('',#504);
#747=PLANE('',#505);
#748=PLANE('',#506);
#749=PLANE('',#507);
#750=CLOSED_SHELL('',(#435,#436,#437,#438,#439,#440,#441,#442,#443,#444,
#445,#446,#447,#448,#449,#450,#451,#452,#453,#454,#455,#456,#457,#458,#459));
#751=MANIFOLD_SOLID_BREP('',#750);
#752=ADVANCED_BREP_SHAPE_REPRESENTATION('',(#751),#65);
ENDSEC;
END-ISO-10303-21;
