ISO-10303-21;
HEADER;
/* Generated by software containing ST-Developer
 * from STEP Tools, Inc. (www.steptools.com) 
 */

FILE_DESCRIPTION(
/* description */ ('Alibre Inc.'),
/* implementation_level */ '2;1');

FILE_NAME(
/* name */ 'export-CBC2AFF3-521A-4C0A-A78A-E91ED0D1469A',
/* time_stamp */ '2020-04-08T13:39:19+02:00',
/* author */ (''),
/* organization */ (''),
/* preprocessor_version */ 'ST-DEVELOPER v17',
/* originating_system */ 'Alibre',
/* authorisation */ '');

FILE_SCHEMA (('AUTOMOTIVE_DESIGN'));
ENDSEC;

DATA;
#10=STYLED_ITEM('NAME_0',(#39),#524);
#11=STYLED_ITEM('NAME_0',(#40),#321);
#12=STYLED_ITEM('NAME_0',(#40),#322);
#13=STYLED_ITEM('NAME_0',(#40),#323);
#14=STYLED_ITEM('NAME_0',(#40),#324);
#15=STYLED_ITEM('NAME_0',(#40),#325);
#16=STYLED_ITEM('NAME_0',(#40),#326);
#17=STYLED_ITEM('NAME_0',(#40),#327);
#18=STYLED_ITEM('NAME_0',(#40),#328);
#19=STYLED_ITEM('NAME_0',(#40),#329);
#20=STYLED_ITEM('NAME_0',(#40),#330);
#21=STYLED_ITEM('NAME_0',(#40),#331);
#22=STYLED_ITEM('NAME_0',(#40),#332);
#23=STYLED_ITEM('NAME_0',(#40),#333);
#24=STYLED_ITEM('NAME_0',(#40),#334);
#25=STYLED_ITEM('NAME_0',(#40),#335);
#26=MECHANICAL_DESIGN_GEOMETRIC_PRESENTATION_REPRESENTATION('NAME_0',(#10,
#11,#12,#13,#14,#15,#16,#17,#18,#19,#20,#21,#22,#23,#24,#25),#55);
#27=COLOUR_RGB('',0.882352941176471,0.882352941176471,0.882352941176471);
#28=COLOUR_RGB('',0.686274509803922,0.686274509803922,0.686274509803922);
#29=FILL_AREA_STYLE_COLOUR('NAME_0',#27);
#30=FILL_AREA_STYLE_COLOUR('NAME_0',#28);
#31=FILL_AREA_STYLE('NAME_0',(#29));
#32=FILL_AREA_STYLE('NAME_0',(#30));
#33=SURFACE_STYLE_FILL_AREA(#31);
#34=SURFACE_STYLE_FILL_AREA(#32);
#35=SURFACE_SIDE_STYLE('NAME_0',(#33));
#36=SURFACE_SIDE_STYLE('NAME_0',(#34));
#37=SURFACE_STYLE_USAGE(.POSITIVE.,#35);
#38=SURFACE_STYLE_USAGE(.POSITIVE.,#36);
#39=PRESENTATION_STYLE_ASSIGNMENT((#37));
#40=PRESENTATION_STYLE_ASSIGNMENT((#38));
#41=PRODUCT_DEFINITION_CONTEXT('part definition',#48,'design');
#42=SHAPE_DEFINITION_REPRESENTATION(#43,#525);
#43=PRODUCT_DEFINITION_SHAPE('PRODUCT_VERSION_ID',
'PRODUCT_VERSION_DESCR',#44);
#44=PRODUCT_DEFINITION('PRODUCT_VERSION_ID','PRODUCT_VERSION_DESCR',#45,
#41);
#45=PRODUCT_DEFINITION_FORMATION_WITH_SPECIFIED_SOURCE(
'PRODUCT_VERSION_ID','PRODUCT_VERSION_DESCR',#50,.MADE.);
#46=PRODUCT_RELATED_PRODUCT_CATEGORY('part','part',(#50));
#47=APPLICATION_PROTOCOL_DEFINITION('Draft International Standard',
'automotive_design',1994,#48);
#48=APPLICATION_CONTEXT('automotive_Design');
#49=PRODUCT_CONTEXT('3D Mechanical Parts',#48,'mechanical');
#50=PRODUCT('','4551 W0950200001 FOOT MODEL A 20&25\X\D8 BORE ISO6432',
'',(#49));
#51=(
LENGTH_UNIT()
NAMED_UNIT(*)
SI_UNIT(.MILLI.,.METRE.)
);
#52=(
NAMED_UNIT(*)
PLANE_ANGLE_UNIT()
SI_UNIT($,.RADIAN.)
);
#53=(
NAMED_UNIT(*)
SI_UNIT($,.STERADIAN.)
SOLID_ANGLE_UNIT()
);
#54=UNCERTAINTY_MEASURE_WITH_UNIT(LENGTH_MEASURE(1.E-6),#51,
'DISTANCE_ACCURACY_VALUE',
'Maximum model space distance between geometric entities at asserted c
onnectivities');
#55=(
GEOMETRIC_REPRESENTATION_CONTEXT(3)
GLOBAL_UNCERTAINTY_ASSIGNED_CONTEXT((#54))
GLOBAL_UNIT_ASSIGNED_CONTEXT((#53,#52,#51))
REPRESENTATION_CONTEXT('ID1','3D')
);
#56=ELLIPSE('',#351,2.09074074074074,2.);
#57=ELLIPSE('',#352,2.09074074074074,2.);
#58=CYLINDRICAL_SURFACE('',#339,3.25);
#59=CYLINDRICAL_SURFACE('',#344,4.);
#60=CYLINDRICAL_SURFACE('',#350,2.);
#61=CYLINDRICAL_SURFACE('',#353,11.);
#62=CYLINDRICAL_SURFACE('',#357,20.);
#63=CYLINDRICAL_SURFACE('',#362,3.25);
#64=VECTOR('',#368,1.);
#65=VECTOR('',#369,1.);
#66=VECTOR('',#370,1.);
#67=VECTOR('',#371,1.);
#68=VECTOR('',#374,1.);
#69=VECTOR('',#380,1.);
#70=VECTOR('',#381,1.);
#71=VECTOR('',#382,1.);
#72=VECTOR('',#383,1.);
#73=VECTOR('',#385,1.);
#74=VECTOR('',#386,1.);
#75=VECTOR('',#393,1.);
#76=VECTOR('',#397,1.);
#77=VECTOR('',#400,1.);
#78=VECTOR('',#401,1.);
#79=VECTOR('',#402,1.);
#80=VECTOR('',#405,1.);
#81=VECTOR('',#412,1.);
#82=VECTOR('',#416,1.);
#83=VECTOR('',#417,1.);
#84=VECTOR('',#422,1.);
#85=VECTOR('',#423,1.);
#86=VECTOR('',#425,1.);
#87=VECTOR('',#428,1.);
#88=VECTOR('',#432,1.);
#89=LINE('',#440,#64);
#90=LINE('',#443,#65);
#91=LINE('',#445,#66);
#92=LINE('',#447,#67);
#93=LINE('',#449,#68);
#94=LINE('',#457,#69);
#95=LINE('',#460,#70);
#96=LINE('',#462,#71);
#97=LINE('',#464,#72);
#98=LINE('',#466,#73);
#99=LINE('',#467,#74);
#100=LINE('',#473,#75);
#101=LINE('',#478,#76);
#102=LINE('',#483,#77);
#103=LINE('',#485,#78);
#104=LINE('',#486,#79);
#105=LINE('',#488,#80);
#106=LINE('',#494,#81);
#107=LINE('',#498,#82);
#108=LINE('',#500,#83);
#109=LINE('',#504,#84);
#110=LINE('',#505,#85);
#111=LINE('',#507,#86);
#112=LINE('',#510,#87);
#113=LINE('',#513,#88);
#114=VERTEX_POINT('',#435);
#115=VERTEX_POINT('',#436);
#116=VERTEX_POINT('',#438);
#117=VERTEX_POINT('',#439);
#118=VERTEX_POINT('',#441);
#119=VERTEX_POINT('',#442);
#120=VERTEX_POINT('',#444);
#121=VERTEX_POINT('',#446);
#122=VERTEX_POINT('',#450);
#123=VERTEX_POINT('',#452);
#124=VERTEX_POINT('',#455);
#125=VERTEX_POINT('',#456);
#126=VERTEX_POINT('',#458);
#127=VERTEX_POINT('',#459);
#128=VERTEX_POINT('',#461);
#129=VERTEX_POINT('',#463);
#130=VERTEX_POINT('',#470);
#131=VERTEX_POINT('',#472);
#132=VERTEX_POINT('',#476);
#133=VERTEX_POINT('',#477);
#134=VERTEX_POINT('',#479);
#135=VERTEX_POINT('',#480);
#136=VERTEX_POINT('',#482);
#137=VERTEX_POINT('',#484);
#138=VERTEX_POINT('',#489);
#139=VERTEX_POINT('',#490);
#140=VERTEX_POINT('',#495);
#141=VERTEX_POINT('',#499);
#142=VERTEX_POINT('',#501);
#143=CIRCLE('',#337,3.25);
#144=CIRCLE('',#338,3.25);
#145=CIRCLE('',#340,3.25);
#146=CIRCLE('',#342,3.25);
#147=CIRCLE('',#345,4.);
#148=CIRCLE('',#346,4.);
#149=CIRCLE('',#348,11.);
#150=CIRCLE('',#349,20.);
#151=CIRCLE('',#354,11.);
#152=CIRCLE('',#356,20.);
#153=EDGE_CURVE('',#114,#115,#143,.T.);
#154=EDGE_CURVE('',#115,#114,#143,.T.);
#155=EDGE_CURVE('',#116,#117,#144,.T.);
#156=EDGE_CURVE('',#117,#116,#144,.T.);
#157=EDGE_CURVE('',#118,#119,#89,.T.);
#158=EDGE_CURVE('',#120,#119,#90,.T.);
#159=EDGE_CURVE('',#121,#120,#91,.T.);
#160=EDGE_CURVE('',#121,#118,#92,.T.);
#161=EDGE_CURVE('',#116,#122,#93,.T.);
#162=EDGE_CURVE('',#123,#122,#145,.T.);
#163=EDGE_CURVE('',#122,#123,#145,.T.);
#164=EDGE_CURVE('',#124,#125,#146,.T.);
#165=EDGE_CURVE('',#125,#124,#146,.T.);
#166=EDGE_CURVE('',#126,#127,#94,.T.);
#167=EDGE_CURVE('',#128,#127,#95,.T.);
#168=EDGE_CURVE('',#129,#128,#96,.T.);
#169=EDGE_CURVE('',#129,#126,#97,.T.);
#170=EDGE_CURVE('',#127,#118,#98,.T.);
#171=EDGE_CURVE('',#128,#121,#99,.T.);
#172=EDGE_CURVE('',#130,#126,#147,.T.);
#173=EDGE_CURVE('',#131,#129,#148,.T.);
#174=EDGE_CURVE('',#131,#130,#100,.T.);
#175=EDGE_CURVE('',#132,#133,#149,.T.);
#176=EDGE_CURVE('',#133,#132,#149,.T.);
#177=EDGE_CURVE('',#134,#135,#101,.T.);
#178=EDGE_CURVE('',#136,#135,#150,.T.);
#179=EDGE_CURVE('',#136,#137,#102,.T.);
#180=EDGE_CURVE('',#137,#130,#103,.T.);
#181=EDGE_CURVE('',#134,#131,#104,.T.);
#182=EDGE_CURVE('',#138,#139,#105,.T.);
#183=EDGE_CURVE('',#138,#120,#56,.T.);
#184=EDGE_CURVE('',#119,#139,#57,.T.);
#185=EDGE_CURVE('',#140,#133,#106,.T.);
#186=EDGE_CURVE('',#140,#140,#151,.T.);
#187=EDGE_CURVE('',#138,#141,#107,.T.);
#188=EDGE_CURVE('',#142,#139,#108,.T.);
#189=EDGE_CURVE('',#142,#141,#152,.T.);
#190=EDGE_CURVE('',#142,#136,#109,.T.);
#191=EDGE_CURVE('',#141,#135,#110,.T.);
#192=EDGE_CURVE('',#120,#134,#111,.T.);
#193=EDGE_CURVE('',#119,#137,#112,.T.);
#194=EDGE_CURVE('',#114,#125,#113,.T.);
#195=ORIENTED_EDGE('',*,*,#153,.F.);
#196=ORIENTED_EDGE('',*,*,#154,.F.);
#197=ORIENTED_EDGE('',*,*,#155,.F.);
#198=ORIENTED_EDGE('',*,*,#156,.F.);
#199=ORIENTED_EDGE('',*,*,#157,.T.);
#200=ORIENTED_EDGE('',*,*,#158,.F.);
#201=ORIENTED_EDGE('',*,*,#159,.F.);
#202=ORIENTED_EDGE('',*,*,#160,.T.);
#203=ORIENTED_EDGE('',*,*,#161,.F.);
#204=ORIENTED_EDGE('',*,*,#155,.T.);
#205=ORIENTED_EDGE('',*,*,#156,.T.);
#206=ORIENTED_EDGE('',*,*,#161,.T.);
#207=ORIENTED_EDGE('',*,*,#162,.F.);
#208=ORIENTED_EDGE('',*,*,#163,.F.);
#209=ORIENTED_EDGE('',*,*,#164,.T.);
#210=ORIENTED_EDGE('',*,*,#165,.T.);
#211=ORIENTED_EDGE('',*,*,#162,.T.);
#212=ORIENTED_EDGE('',*,*,#163,.T.);
#213=ORIENTED_EDGE('',*,*,#166,.T.);
#214=ORIENTED_EDGE('',*,*,#167,.F.);
#215=ORIENTED_EDGE('',*,*,#168,.F.);
#216=ORIENTED_EDGE('',*,*,#169,.T.);
#217=ORIENTED_EDGE('',*,*,#170,.T.);
#218=ORIENTED_EDGE('',*,*,#160,.F.);
#219=ORIENTED_EDGE('',*,*,#171,.F.);
#220=ORIENTED_EDGE('',*,*,#167,.T.);
#221=ORIENTED_EDGE('',*,*,#172,.T.);
#222=ORIENTED_EDGE('',*,*,#169,.F.);
#223=ORIENTED_EDGE('',*,*,#173,.F.);
#224=ORIENTED_EDGE('',*,*,#174,.T.);
#225=ORIENTED_EDGE('',*,*,#175,.T.);
#226=ORIENTED_EDGE('',*,*,#176,.T.);
#227=ORIENTED_EDGE('',*,*,#177,.T.);
#228=ORIENTED_EDGE('',*,*,#178,.F.);
#229=ORIENTED_EDGE('',*,*,#179,.T.);
#230=ORIENTED_EDGE('',*,*,#180,.T.);
#231=ORIENTED_EDGE('',*,*,#174,.F.);
#232=ORIENTED_EDGE('',*,*,#181,.F.);
#233=ORIENTED_EDGE('',*,*,#182,.F.);
#234=ORIENTED_EDGE('',*,*,#183,.T.);
#235=ORIENTED_EDGE('',*,*,#158,.T.);
#236=ORIENTED_EDGE('',*,*,#184,.T.);
#237=ORIENTED_EDGE('',*,*,#185,.F.);
#238=ORIENTED_EDGE('',*,*,#186,.T.);
#239=ORIENTED_EDGE('',*,*,#185,.T.);
#240=ORIENTED_EDGE('',*,*,#175,.F.);
#241=ORIENTED_EDGE('',*,*,#176,.F.);
#242=ORIENTED_EDGE('',*,*,#186,.F.);
#243=ORIENTED_EDGE('',*,*,#187,.F.);
#244=ORIENTED_EDGE('',*,*,#182,.T.);
#245=ORIENTED_EDGE('',*,*,#188,.F.);
#246=ORIENTED_EDGE('',*,*,#189,.T.);
#247=ORIENTED_EDGE('',*,*,#190,.T.);
#248=ORIENTED_EDGE('',*,*,#178,.T.);
#249=ORIENTED_EDGE('',*,*,#191,.F.);
#250=ORIENTED_EDGE('',*,*,#189,.F.);
#251=ORIENTED_EDGE('',*,*,#187,.T.);
#252=ORIENTED_EDGE('',*,*,#191,.T.);
#253=ORIENTED_EDGE('',*,*,#177,.F.);
#254=ORIENTED_EDGE('',*,*,#192,.F.);
#255=ORIENTED_EDGE('',*,*,#183,.F.);
#256=ORIENTED_EDGE('',*,*,#159,.T.);
#257=ORIENTED_EDGE('',*,*,#192,.T.);
#258=ORIENTED_EDGE('',*,*,#181,.T.);
#259=ORIENTED_EDGE('',*,*,#173,.T.);
#260=ORIENTED_EDGE('',*,*,#168,.T.);
#261=ORIENTED_EDGE('',*,*,#171,.T.);
#262=ORIENTED_EDGE('',*,*,#193,.F.);
#263=ORIENTED_EDGE('',*,*,#157,.F.);
#264=ORIENTED_EDGE('',*,*,#170,.F.);
#265=ORIENTED_EDGE('',*,*,#166,.F.);
#266=ORIENTED_EDGE('',*,*,#172,.F.);
#267=ORIENTED_EDGE('',*,*,#180,.F.);
#268=ORIENTED_EDGE('',*,*,#193,.T.);
#269=ORIENTED_EDGE('',*,*,#179,.F.);
#270=ORIENTED_EDGE('',*,*,#190,.F.);
#271=ORIENTED_EDGE('',*,*,#188,.T.);
#272=ORIENTED_EDGE('',*,*,#184,.F.);
#273=ORIENTED_EDGE('',*,*,#194,.F.);
#274=ORIENTED_EDGE('',*,*,#153,.T.);
#275=ORIENTED_EDGE('',*,*,#154,.T.);
#276=ORIENTED_EDGE('',*,*,#194,.T.);
#277=ORIENTED_EDGE('',*,*,#164,.F.);
#278=ORIENTED_EDGE('',*,*,#165,.F.);
#279=EDGE_LOOP('',(#195,#196));
#280=EDGE_LOOP('',(#197,#198));
#281=EDGE_LOOP('',(#199,#200,#201,#202));
#282=EDGE_LOOP('',(#203,#204,#205,#206,#207,#208));
#283=EDGE_LOOP('',(#209,#210));
#284=EDGE_LOOP('',(#211,#212));
#285=EDGE_LOOP('',(#213,#214,#215,#216));
#286=EDGE_LOOP('',(#217,#218,#219,#220));
#287=EDGE_LOOP('',(#221,#222,#223,#224));
#288=EDGE_LOOP('',(#225,#226));
#289=EDGE_LOOP('',(#227,#228,#229,#230,#231,#232));
#290=EDGE_LOOP('',(#233,#234,#235,#236));
#291=EDGE_LOOP('',(#237,#238,#239,#240,#241));
#292=EDGE_LOOP('',(#242));
#293=EDGE_LOOP('',(#243,#244,#245,#246));
#294=EDGE_LOOP('',(#247,#248,#249,#250));
#295=EDGE_LOOP('',(#251,#252,#253,#254,#255));
#296=EDGE_LOOP('',(#256,#257,#258,#259,#260,#261));
#297=EDGE_LOOP('',(#262,#263,#264,#265,#266,#267));
#298=EDGE_LOOP('',(#268,#269,#270,#271,#272));
#299=EDGE_LOOP('',(#273,#274,#275,#276,#277,#278));
#300=FACE_BOUND('',#279,.T.);
#301=FACE_BOUND('',#280,.T.);
#302=FACE_BOUND('',#281,.T.);
#303=FACE_BOUND('',#282,.T.);
#304=FACE_BOUND('',#283,.T.);
#305=FACE_BOUND('',#284,.T.);
#306=FACE_BOUND('',#285,.T.);
#307=FACE_BOUND('',#286,.T.);
#308=FACE_BOUND('',#287,.T.);
#309=FACE_BOUND('',#288,.T.);
#310=FACE_BOUND('',#289,.T.);
#311=FACE_BOUND('',#290,.T.);
#312=FACE_BOUND('',#291,.T.);
#313=FACE_BOUND('',#292,.T.);
#314=FACE_BOUND('',#293,.T.);
#315=FACE_BOUND('',#294,.T.);
#316=FACE_BOUND('',#295,.T.);
#317=FACE_BOUND('',#296,.T.);
#318=FACE_BOUND('',#297,.T.);
#319=FACE_BOUND('',#298,.T.);
#320=FACE_BOUND('',#299,.T.);
#321=ADVANCED_FACE('',(#300,#301,#302),#514,.F.);
#322=ADVANCED_FACE('',(#303),#58,.F.);
#323=ADVANCED_FACE('',(#304,#305,#306),#515,.F.);
#324=ADVANCED_FACE('',(#307),#516,.F.);
#325=ADVANCED_FACE('',(#308),#59,.T.);
#326=ADVANCED_FACE('',(#309,#310),#517,.F.);
#327=ADVANCED_FACE('',(#311),#60,.F.);
#328=ADVANCED_FACE('',(#312),#61,.F.);
#329=ADVANCED_FACE('',(#313,#314),#518,.F.);
#330=ADVANCED_FACE('',(#315),#62,.T.);
#331=ADVANCED_FACE('',(#316),#519,.T.);
#332=ADVANCED_FACE('',(#317),#520,.T.);
#333=ADVANCED_FACE('',(#318),#521,.F.);
#334=ADVANCED_FACE('',(#319),#522,.T.);
#335=ADVANCED_FACE('',(#320),#63,.F.);
#336=AXIS2_PLACEMENT_3D('',#433,#363,$);
#337=AXIS2_PLACEMENT_3D('',#434,#364,#365);
#338=AXIS2_PLACEMENT_3D('',#437,#366,#367);
#339=AXIS2_PLACEMENT_3D('',#448,#372,#373);
#340=AXIS2_PLACEMENT_3D('',#451,#375,#376);
#341=AXIS2_PLACEMENT_3D('',#453,#377,$);
#342=AXIS2_PLACEMENT_3D('',#454,#378,#379);
#343=AXIS2_PLACEMENT_3D('',#465,#384,$);
#344=AXIS2_PLACEMENT_3D('',#468,#387,#388);
#345=AXIS2_PLACEMENT_3D('',#469,#389,#390);
#346=AXIS2_PLACEMENT_3D('',#471,#391,#392);
#347=AXIS2_PLACEMENT_3D('',#474,#394,$);
#348=AXIS2_PLACEMENT_3D('',#475,#395,#396);
#349=AXIS2_PLACEMENT_3D('',#481,#398,#399);
#350=AXIS2_PLACEMENT_3D('',#487,#403,#404);
#351=AXIS2_PLACEMENT_3D('',#491,#406,#407);
#352=AXIS2_PLACEMENT_3D('',#492,#408,#409);
#353=AXIS2_PLACEMENT_3D('',#493,#410,#411);
#354=AXIS2_PLACEMENT_3D('',#496,#413,#414);
#355=AXIS2_PLACEMENT_3D('',#497,#415,$);
#356=AXIS2_PLACEMENT_3D('',#502,#418,#419);
#357=AXIS2_PLACEMENT_3D('',#503,#420,#421);
#358=AXIS2_PLACEMENT_3D('',#506,#424,$);
#359=AXIS2_PLACEMENT_3D('',#508,#426,$);
#360=AXIS2_PLACEMENT_3D('',#509,#427,$);
#361=AXIS2_PLACEMENT_3D('',#511,#429,$);
#362=AXIS2_PLACEMENT_3D('',#512,#430,#431);
#363=DIRECTION('',(0.,-1.,0.));
#364=DIRECTION('',(0.,1.,0.));
#365=DIRECTION('',(3.25,0.,0.));
#366=DIRECTION('',(0.,1.,0.));
#367=DIRECTION('',(3.25,0.,0.));
#368=DIRECTION('',(-1.,0.,0.));
#369=DIRECTION('',(0.,0.,-1.));
#370=DIRECTION('',(-1.,0.,0.));
#371=DIRECTION('',(0.,0.,-1.));
#372=DIRECTION('',(0.,1.,0.));
#373=DIRECTION('',(0.,0.,-3.25));
#374=DIRECTION('',(0.,-1.,0.));
#375=DIRECTION('',(0.,1.,0.));
#376=DIRECTION('',(3.25,0.,0.));
#377=DIRECTION('',(0.,1.,0.));
#378=DIRECTION('',(0.,1.,0.));
#379=DIRECTION('',(3.25,0.,0.));
#380=DIRECTION('',(1.,0.,0.));
#381=DIRECTION('',(0.,0.,-1.));
#382=DIRECTION('',(1.,0.,0.));
#383=DIRECTION('',(0.,0.,-1.));
#384=DIRECTION('',(-1.,0.,0.));
#385=DIRECTION('',(0.,1.,0.));
#386=DIRECTION('',(0.,1.,0.));
#387=DIRECTION('',(0.,0.,1.));
#388=DIRECTION('',(-4.,0.,0.));
#389=DIRECTION('',(0.,0.,1.));
#390=DIRECTION('',(4.,0.,0.));
#391=DIRECTION('',(0.,0.,1.));
#392=DIRECTION('',(4.,0.,0.));
#393=DIRECTION('',(0.,0.,-1.));
#394=DIRECTION('',(1.,0.,0.));
#395=DIRECTION('',(1.,0.,0.));
#396=DIRECTION('',(0.,0.,-11.));
#397=DIRECTION('',(0.,0.95659875996457,-0.29140832595217));
#398=DIRECTION('',(1.,0.,0.));
#399=DIRECTION('',(0.,0.,-20.));
#400=DIRECTION('',(0.,-0.95659875996457,-0.29140832595217));
#401=DIRECTION('',(0.,-1.,0.));
#402=DIRECTION('',(0.,-1.,0.));
#403=DIRECTION('',(0.,0.,1.));
#404=DIRECTION('',(-2.,0.,0.));
#405=DIRECTION('',(0.,0.,-1.));
#406=DIRECTION('',(0.,0.29140832595217,0.956598759964571));
#407=DIRECTION('',(0.,2.,-0.609259259259259));
#408=DIRECTION('',(0.,0.29140832595217,-0.95659875996457));
#409=DIRECTION('',(0.,-2.,-0.609259259259259));
#410=DIRECTION('',(1.,0.,0.));
#411=DIRECTION('',(0.,0.,11.));
#412=DIRECTION('',(-1.,0.,0.));
#413=DIRECTION('',(1.,0.,0.));
#414=DIRECTION('',(0.,0.,11.));
#415=DIRECTION('',(-1.,0.,0.));
#416=DIRECTION('',(0.,0.956598759964571,-0.291408325952169));
#417=DIRECTION('',(0.,-0.956598759964571,-0.291408325952169));
#418=DIRECTION('',(1.,0.,0.));
#419=DIRECTION('',(0.,0.,20.));
#420=DIRECTION('',(1.,0.,0.));
#421=DIRECTION('',(0.,0.,20.));
#422=DIRECTION('',(-1.,0.,0.));
#423=DIRECTION('',(-1.,0.,0.));
#424=DIRECTION('',(0.,0.29140832595217,0.956598759964571));
#425=DIRECTION('',(-1.,0.,0.));
#426=DIRECTION('',(0.,0.,1.));
#427=DIRECTION('',(0.,0.,1.));
#428=DIRECTION('',(-1.,0.,0.));
#429=DIRECTION('',(0.,0.29140832595217,-0.95659875996457));
#430=DIRECTION('',(0.,1.,0.));
#431=DIRECTION('',(0.,0.,-3.25));
#432=DIRECTION('',(0.,-1.,0.));
#433=CARTESIAN_POINT('',(25.,-20.,27.));
#434=CARTESIAN_POINT('',(17.,-20.,-20.));
#435=CARTESIAN_POINT('',(17.,-20.,-23.25));
#436=CARTESIAN_POINT('',(20.25,-20.,-20.));
#437=CARTESIAN_POINT('',(17.,-20.,20.));
#438=CARTESIAN_POINT('',(17.,-20.,16.75));
#439=CARTESIAN_POINT('',(20.25,-20.,20.));
#440=CARTESIAN_POINT('',(25.,-20.,-27.));
#441=CARTESIAN_POINT('',(25.,-20.,-27.));
#442=CARTESIAN_POINT('',(7.,-20.,-27.));
#443=CARTESIAN_POINT('',(7.,-20.,27.));
#444=CARTESIAN_POINT('',(7.,-20.,27.));
#445=CARTESIAN_POINT('',(25.,-20.,27.));
#446=CARTESIAN_POINT('',(25.,-20.,27.));
#447=CARTESIAN_POINT('',(25.,-20.,27.));
#448=CARTESIAN_POINT('',(17.,-20.,20.));
#449=CARTESIAN_POINT('',(17.,-25.,16.75));
#450=CARTESIAN_POINT('',(17.,-25.,16.75));
#451=CARTESIAN_POINT('',(17.,-25.,20.));
#452=CARTESIAN_POINT('',(20.25,-25.,20.));
#453=CARTESIAN_POINT('',(4.,-25.,27.));
#454=CARTESIAN_POINT('',(17.,-25.,-20.));
#455=CARTESIAN_POINT('',(20.25,-25.,-20.));
#456=CARTESIAN_POINT('',(17.,-25.,-23.25));
#457=CARTESIAN_POINT('',(4.,-25.,-27.));
#458=CARTESIAN_POINT('',(4.,-25.,-27.));
#459=CARTESIAN_POINT('',(25.,-25.,-27.));
#460=CARTESIAN_POINT('',(25.,-25.,27.));
#461=CARTESIAN_POINT('',(25.,-25.,27.));
#462=CARTESIAN_POINT('',(4.,-25.,27.));
#463=CARTESIAN_POINT('',(4.,-25.,27.));
#464=CARTESIAN_POINT('',(4.,-25.,27.));
#465=CARTESIAN_POINT('',(25.,-25.,27.));
#466=CARTESIAN_POINT('',(25.,-25.,-27.));
#467=CARTESIAN_POINT('',(25.,-25.,27.));
#468=CARTESIAN_POINT('',(4.,-21.,27.));
#469=CARTESIAN_POINT('',(4.,-21.,-27.));
#470=CARTESIAN_POINT('',(0.,-21.,-27.));
#471=CARTESIAN_POINT('',(4.,-21.,27.));
#472=CARTESIAN_POINT('',(0.,-21.,27.));
#473=CARTESIAN_POINT('',(0.,-21.,27.));
#474=CARTESIAN_POINT('',(0.,25.,27.));
#475=CARTESIAN_POINT('',(0.,0.,0.));
#476=CARTESIAN_POINT('',(0.,-1.34711147906209E-15,-11.));
#477=CARTESIAN_POINT('',(0.,6.73555739531044E-16,11.));
#478=CARTESIAN_POINT('',(0.,-20.,27.));
#479=CARTESIAN_POINT('',(0.,-20.,27.));
#480=CARTESIAN_POINT('',(0.,5.82816651904341,19.1319751992914));
#481=CARTESIAN_POINT('',(0.,3.46944695195361E-15,1.73472347597681E-15));
#482=CARTESIAN_POINT('',(0.,5.8281665190434,-19.1319751992914));
#483=CARTESIAN_POINT('',(0.,5.8281665190434,-19.1319751992914));
#484=CARTESIAN_POINT('',(0.,-20.,-27.));
#485=CARTESIAN_POINT('',(0.,-20.,-27.));
#486=CARTESIAN_POINT('',(0.,-20.,27.));
#487=CARTESIAN_POINT('',(7.,-18.,27.));
#488=CARTESIAN_POINT('',(5.,-18.,26.3907407407407));
#489=CARTESIAN_POINT('',(5.,-18.,26.3907407407407));
#490=CARTESIAN_POINT('',(5.,-18.,-26.3907407407407));
#491=CARTESIAN_POINT('',(7.,-18.,26.3907407407407));
#492=CARTESIAN_POINT('',(7.,-18.,-26.3907407407407));
#493=CARTESIAN_POINT('',(27.,0.,0.));
#494=CARTESIAN_POINT('',(-22.,0.,11.));
#495=CARTESIAN_POINT('',(5.,1.34711147906209E-15,11.));
#496=CARTESIAN_POINT('',(5.,0.,0.));
#497=CARTESIAN_POINT('',(5.,-18.,27.));
#498=CARTESIAN_POINT('',(5.,-18.,26.3907407407407));
#499=CARTESIAN_POINT('',(5.,5.82816651904341,19.1319751992914));
#500=CARTESIAN_POINT('',(5.,5.8281665190434,-19.1319751992914));
#501=CARTESIAN_POINT('',(5.,5.8281665190434,-19.1319751992914));
#502=CARTESIAN_POINT('',(5.,3.46944695195361E-15,1.73472347597681E-15));
#503=CARTESIAN_POINT('',(27.,3.46944695195361E-15,1.73472347597681E-15));
#504=CARTESIAN_POINT('',(5.,5.8281665190434,-19.1319751992914));
#505=CARTESIAN_POINT('',(5.,5.82816651904341,19.1319751992914));
#506=CARTESIAN_POINT('',(27.,-20.,27.));
#507=CARTESIAN_POINT('',(7.,-20.,27.));
#508=CARTESIAN_POINT('',(4.,-21.,27.));
#509=CARTESIAN_POINT('',(4.,-21.,-27.));
#510=CARTESIAN_POINT('',(7.,-20.,-27.));
#511=CARTESIAN_POINT('',(27.,5.8281665190434,-19.1319751992914));
#512=CARTESIAN_POINT('',(17.,-20.,-20.));
#513=CARTESIAN_POINT('',(17.,-25.,-23.25));
#514=PLANE('',#336);
#515=PLANE('',#341);
#516=PLANE('',#343);
#517=PLANE('',#347);
#518=PLANE('',#355);
#519=PLANE('',#358);
#520=PLANE('',#359);
#521=PLANE('',#360);
#522=PLANE('',#361);
#523=CLOSED_SHELL('',(#321,#322,#323,#324,#325,#326,#327,#328,#329,#330,
#331,#332,#333,#334,#335));
#524=MANIFOLD_SOLID_BREP('',#523);
#525=ADVANCED_BREP_SHAPE_REPRESENTATION('',(#524),#55);
ENDSEC;
END-ISO-10303-21;
