ISO-10303-21;
HEADER;
/* Generated by software containing ST-Developer
 * from STEP Tools, Inc. (www.steptools.com) 
 */

FILE_DESCRIPTION(
/* description */ ('Alibre Inc.'),
/* implementation_level */ '2;1');

FILE_NAME(
/* name */ 'export-C0D96269-BD6A-46D7-A1A4-3FE6ED61BC5A',
/* time_stamp */ '2020-08-25T20:02:20+02:00',
/* author */ (''),
/* organization */ (''),
/* preprocessor_version */ 'ST-DEVELOPER v17',
/* originating_system */ 'Alibre',
/* authorisation */ '');

FILE_SCHEMA (('AUTOMOTIVE_DESIGN'));
ENDSEC;

DATA;
#10=STYLED_ITEM('NAME_0',(#43),#660);
#11=STYLED_ITEM('NAME_0',(#44),#408);
#12=STYLED_ITEM('NAME_0',(#44),#409);
#13=STYLED_ITEM('NAME_0',(#44),#410);
#14=STYLED_ITEM('NAME_0',(#44),#411);
#15=STYLED_ITEM('NAME_0',(#44),#412);
#16=STYLED_ITEM('NAME_0',(#44),#413);
#17=STYLED_ITEM('NAME_0',(#44),#414);
#18=STYLED_ITEM('NAME_0',(#44),#415);
#19=STYLED_ITEM('NAME_0',(#44),#416);
#20=STYLED_ITEM('NAME_0',(#44),#417);
#21=STYLED_ITEM('NAME_0',(#44),#418);
#22=STYLED_ITEM('NAME_0',(#44),#419);
#23=STYLED_ITEM('NAME_0',(#44),#420);
#24=STYLED_ITEM('NAME_0',(#44),#421);
#25=STYLED_ITEM('NAME_0',(#44),#422);
#26=STYLED_ITEM('NAME_0',(#44),#423);
#27=STYLED_ITEM('NAME_0',(#44),#424);
#28=STYLED_ITEM('NAME_0',(#44),#425);
#29=STYLED_ITEM('NAME_0',(#44),#426);
#30=MECHANICAL_DESIGN_GEOMETRIC_PRESENTATION_REPRESENTATION('NAME_0',(#10,
#11,#12,#13,#14,#15,#16,#17,#18,#19,#20,#21,#22,#23,#24,#25,#26,#27,#28,
#29),#59);
#31=COLOUR_RGB('',0.882352941176471,0.882352941176471,0.882352941176471);
#32=COLOUR_RGB('',0.686274509803922,0.686274509803922,0.686274509803922);
#33=FILL_AREA_STYLE_COLOUR('NAME_0',#31);
#34=FILL_AREA_STYLE_COLOUR('NAME_0',#32);
#35=FILL_AREA_STYLE('NAME_0',(#33));
#36=FILL_AREA_STYLE('NAME_0',(#34));
#37=SURFACE_STYLE_FILL_AREA(#35);
#38=SURFACE_STYLE_FILL_AREA(#36);
#39=SURFACE_SIDE_STYLE('NAME_0',(#37));
#40=SURFACE_SIDE_STYLE('NAME_0',(#38));
#41=SURFACE_STYLE_USAGE(.POSITIVE.,#39);
#42=SURFACE_STYLE_USAGE(.POSITIVE.,#40);
#43=PRESENTATION_STYLE_ASSIGNMENT((#41));
#44=PRESENTATION_STYLE_ASSIGNMENT((#42));
#45=PRODUCT_DEFINITION_CONTEXT('part definition',#52,'design');
#46=SHAPE_DEFINITION_REPRESENTATION(#47,#661);
#47=PRODUCT_DEFINITION_SHAPE('PRODUCT_VERSION_ID',
'PRODUCT_VERSION_DESCR',#48);
#48=PRODUCT_DEFINITION('PRODUCT_VERSION_ID','PRODUCT_VERSION_DESCR',#49,
#45);
#49=PRODUCT_DEFINITION_FORMATION_WITH_SPECIFIED_SOURCE(
'PRODUCT_VERSION_ID','PRODUCT_VERSION_DESCR',#54,.MADE.);
#50=PRODUCT_RELATED_PRODUCT_CATEGORY('part','part',(#54));
#51=APPLICATION_PROTOCOL_DEFINITION('Draft International Standard',
'automotive_design',1994,#52);
#52=APPLICATION_CONTEXT('automotive_Design');
#53=PRODUCT_CONTEXT('3D Mechanical Parts',#52,'mechanical');
#54=PRODUCT('_W0950322008-32',
'5323 W0950322008 Hinge for model B- Model CETOP GL 032','',(#53));
#55=(
LENGTH_UNIT()
NAMED_UNIT(*)
SI_UNIT(.MILLI.,.METRE.)
);
#56=(
NAMED_UNIT(*)
PLANE_ANGLE_UNIT()
SI_UNIT($,.RADIAN.)
);
#57=(
NAMED_UNIT(*)
SI_UNIT($,.STERADIAN.)
SOLID_ANGLE_UNIT()
);
#58=UNCERTAINTY_MEASURE_WITH_UNIT(LENGTH_MEASURE(1.E-6),#55,
'DISTANCE_ACCURACY_VALUE',
'Maximum model space distance between geometric entities at asserted c
onnectivities');
#59=(
GEOMETRIC_REPRESENTATION_CONTEXT(3)
GLOBAL_UNCERTAINTY_ASSIGNED_CONTEXT((#58))
GLOBAL_UNIT_ASSIGNED_CONTEXT((#57,#56,#55))
REPRESENTATION_CONTEXT('ID1','3D')
);
#60=CYLINDRICAL_SURFACE('',#443,9.5);
#61=CYLINDRICAL_SURFACE('',#447,5.);
#62=CYLINDRICAL_SURFACE('',#448,3.5);
#63=CYLINDRICAL_SURFACE('',#450,3.5);
#64=CYLINDRICAL_SURFACE('',#452,3.5);
#65=CYLINDRICAL_SURFACE('',#454,3.5);
#66=CIRCLE('',#431,9.5);
#67=CIRCLE('',#433,9.5);
#68=CIRCLE('',#436,3.5);
#69=CIRCLE('',#437,3.5);
#70=CIRCLE('',#438,3.5);
#71=CIRCLE('',#439,3.5);
#72=CIRCLE('',#441,5.);
#73=CIRCLE('',#442,9.5);
#74=CIRCLE('',#444,9.5);
#75=CIRCLE('',#446,5.);
#76=CIRCLE('',#449,3.5);
#77=CIRCLE('',#451,3.5);
#78=CIRCLE('',#453,3.5);
#79=CIRCLE('',#455,3.5);
#80=VERTEX_POINT('',#545);
#81=VERTEX_POINT('',#546);
#82=VERTEX_POINT('',#548);
#83=VERTEX_POINT('',#550);
#84=VERTEX_POINT('',#554);
#85=VERTEX_POINT('',#556);
#86=VERTEX_POINT('',#558);
#87=VERTEX_POINT('',#560);
#88=VERTEX_POINT('',#564);
#89=VERTEX_POINT('',#565);
#90=VERTEX_POINT('',#567);
#91=VERTEX_POINT('',#569);
#92=VERTEX_POINT('',#579);
#93=VERTEX_POINT('',#580);
#94=VERTEX_POINT('',#582);
#95=VERTEX_POINT('',#585);
#96=VERTEX_POINT('',#589);
#97=VERTEX_POINT('',#590);
#98=VERTEX_POINT('',#592);
#99=VERTEX_POINT('',#593);
#100=VERTEX_POINT('',#595);
#101=VERTEX_POINT('',#596);
#102=VERTEX_POINT('',#598);
#103=VERTEX_POINT('',#599);
#104=VERTEX_POINT('',#604);
#105=VERTEX_POINT('',#605);
#106=VERTEX_POINT('',#607);
#107=VERTEX_POINT('',#608);
#108=VERTEX_POINT('',#611);
#109=VERTEX_POINT('',#613);
#110=VERTEX_POINT('',#616);
#111=VERTEX_POINT('',#617);
#112=VERTEX_POINT('',#622);
#113=VERTEX_POINT('',#624);
#114=VERTEX_POINT('',#627);
#115=VERTEX_POINT('',#629);
#116=VERTEX_POINT('',#632);
#117=VERTEX_POINT('',#634);
#118=VERTEX_POINT('',#637);
#119=VERTEX_POINT('',#639);
#120=VECTOR('',#461,1.);
#121=VECTOR('',#462,1.);
#122=VECTOR('',#463,1.);
#123=VECTOR('',#464,1.);
#124=VECTOR('',#466,1.);
#125=VECTOR('',#467,1.);
#126=VECTOR('',#468,1.);
#127=VECTOR('',#469,1.);
#128=VECTOR('',#470,1.);
#129=VECTOR('',#472,1.);
#130=VECTOR('',#473,1.);
#131=VECTOR('',#474,1.);
#132=VECTOR('',#475,1.);
#133=VECTOR('',#477,1.);
#134=VECTOR('',#481,1.);
#135=VECTOR('',#485,1.);
#136=VECTOR('',#486,1.);
#137=VECTOR('',#487,1.);
#138=VECTOR('',#488,1.);
#139=VECTOR('',#489,1.);
#140=VECTOR('',#499,1.);
#141=VECTOR('',#500,1.);
#142=VECTOR('',#508,1.);
#143=VECTOR('',#516,1.);
#144=VECTOR('',#519,1.);
#145=VECTOR('',#524,1.);
#146=VECTOR('',#529,1.);
#147=VECTOR('',#534,1.);
#148=VECTOR('',#538,1.);
#149=VECTOR('',#540,1.);
#150=LINE('',#544,#120);
#151=LINE('',#547,#121);
#152=LINE('',#549,#122);
#153=LINE('',#551,#123);
#154=LINE('',#553,#124);
#155=LINE('',#555,#125);
#156=LINE('',#557,#126);
#157=LINE('',#559,#127);
#158=LINE('',#561,#128);
#159=LINE('',#563,#129);
#160=LINE('',#566,#130);
#161=LINE('',#568,#131);
#162=LINE('',#570,#132);
#163=LINE('',#572,#133);
#164=LINE('',#575,#134);
#165=LINE('',#578,#135);
#166=LINE('',#581,#136);
#167=LINE('',#583,#137);
#168=LINE('',#584,#138);
#169=LINE('',#586,#139);
#170=LINE('',#600,#140);
#171=LINE('',#601,#141);
#172=LINE('',#610,#142);
#173=LINE('',#619,#143);
#174=LINE('',#621,#144);
#175=LINE('',#626,#145);
#176=LINE('',#631,#146);
#177=LINE('',#636,#147);
#178=LINE('',#641,#148);
#179=LINE('',#643,#149);
#180=EDGE_CURVE('',#80,#81,#150,.T.);
#181=EDGE_CURVE('',#82,#81,#151,.T.);
#182=EDGE_CURVE('',#83,#82,#152,.T.);
#183=EDGE_CURVE('',#83,#80,#153,.T.);
#184=EDGE_CURVE('',#81,#84,#154,.T.);
#185=EDGE_CURVE('',#84,#85,#155,.T.);
#186=EDGE_CURVE('',#86,#85,#156,.T.);
#187=EDGE_CURVE('',#87,#86,#157,.T.);
#188=EDGE_CURVE('',#87,#82,#158,.T.);
#189=EDGE_CURVE('',#88,#89,#159,.T.);
#190=EDGE_CURVE('',#90,#89,#160,.T.);
#191=EDGE_CURVE('',#91,#90,#161,.T.);
#192=EDGE_CURVE('',#91,#88,#162,.T.);
#193=EDGE_CURVE('',#82,#91,#163,.T.);
#194=EDGE_CURVE('',#83,#90,#66,.T.);
#195=EDGE_CURVE('',#81,#88,#164,.T.);
#196=EDGE_CURVE('',#80,#89,#67,.T.);
#197=EDGE_CURVE('',#92,#93,#165,.T.);
#198=EDGE_CURVE('',#93,#94,#166,.T.);
#199=EDGE_CURVE('',#88,#94,#167,.T.);
#200=EDGE_CURVE('',#95,#91,#168,.T.);
#201=EDGE_CURVE('',#92,#95,#169,.T.);
#202=EDGE_CURVE('',#96,#97,#68,.T.);
#203=EDGE_CURVE('',#97,#96,#68,.T.);
#204=EDGE_CURVE('',#98,#99,#69,.T.);
#205=EDGE_CURVE('',#99,#98,#69,.T.);
#206=EDGE_CURVE('',#100,#101,#70,.T.);
#207=EDGE_CURVE('',#101,#100,#70,.T.);
#208=EDGE_CURVE('',#102,#103,#71,.T.);
#209=EDGE_CURVE('',#103,#102,#71,.T.);
#210=EDGE_CURVE('',#85,#93,#170,.T.);
#211=EDGE_CURVE('',#86,#92,#171,.T.);
#212=EDGE_CURVE('',#104,#105,#72,.T.);
#213=EDGE_CURVE('',#105,#104,#72,.T.);
#214=EDGE_CURVE('',#106,#107,#73,.T.);
#215=EDGE_CURVE('',#107,#106,#73,.T.);
#216=EDGE_CURVE('',#107,#108,#172,.T.);
#217=EDGE_CURVE('',#108,#109,#74,.T.);
#218=EDGE_CURVE('',#109,#108,#74,.T.);
#219=EDGE_CURVE('',#110,#111,#75,.T.);
#220=EDGE_CURVE('',#111,#110,#75,.T.);
#221=EDGE_CURVE('',#104,#111,#173,.T.);
#222=EDGE_CURVE('',#112,#99,#174,.T.);
#223=EDGE_CURVE('',#112,#113,#76,.T.);
#224=EDGE_CURVE('',#113,#112,#76,.T.);
#225=EDGE_CURVE('',#114,#97,#175,.T.);
#226=EDGE_CURVE('',#114,#115,#77,.T.);
#227=EDGE_CURVE('',#115,#114,#77,.T.);
#228=EDGE_CURVE('',#116,#101,#176,.T.);
#229=EDGE_CURVE('',#116,#117,#78,.T.);
#230=EDGE_CURVE('',#117,#116,#78,.T.);
#231=EDGE_CURVE('',#118,#103,#177,.T.);
#232=EDGE_CURVE('',#118,#119,#79,.T.);
#233=EDGE_CURVE('',#119,#118,#79,.T.);
#234=EDGE_CURVE('',#95,#87,#178,.T.);
#235=EDGE_CURVE('',#94,#84,#179,.T.);
#236=ORIENTED_EDGE('',*,*,#180,.T.);
#237=ORIENTED_EDGE('',*,*,#181,.F.);
#238=ORIENTED_EDGE('',*,*,#182,.F.);
#239=ORIENTED_EDGE('',*,*,#183,.T.);
#240=ORIENTED_EDGE('',*,*,#181,.T.);
#241=ORIENTED_EDGE('',*,*,#184,.T.);
#242=ORIENTED_EDGE('',*,*,#185,.T.);
#243=ORIENTED_EDGE('',*,*,#186,.F.);
#244=ORIENTED_EDGE('',*,*,#187,.F.);
#245=ORIENTED_EDGE('',*,*,#188,.T.);
#246=ORIENTED_EDGE('',*,*,#189,.T.);
#247=ORIENTED_EDGE('',*,*,#190,.F.);
#248=ORIENTED_EDGE('',*,*,#191,.F.);
#249=ORIENTED_EDGE('',*,*,#192,.T.);
#250=ORIENTED_EDGE('',*,*,#182,.T.);
#251=ORIENTED_EDGE('',*,*,#193,.T.);
#252=ORIENTED_EDGE('',*,*,#191,.T.);
#253=ORIENTED_EDGE('',*,*,#194,.F.);
#254=ORIENTED_EDGE('',*,*,#195,.F.);
#255=ORIENTED_EDGE('',*,*,#180,.F.);
#256=ORIENTED_EDGE('',*,*,#196,.T.);
#257=ORIENTED_EDGE('',*,*,#189,.F.);
#258=ORIENTED_EDGE('',*,*,#197,.T.);
#259=ORIENTED_EDGE('',*,*,#198,.T.);
#260=ORIENTED_EDGE('',*,*,#199,.F.);
#261=ORIENTED_EDGE('',*,*,#192,.F.);
#262=ORIENTED_EDGE('',*,*,#200,.F.);
#263=ORIENTED_EDGE('',*,*,#201,.F.);
#264=ORIENTED_EDGE('',*,*,#202,.T.);
#265=ORIENTED_EDGE('',*,*,#203,.T.);
#266=ORIENTED_EDGE('',*,*,#204,.T.);
#267=ORIENTED_EDGE('',*,*,#205,.T.);
#268=ORIENTED_EDGE('',*,*,#206,.T.);
#269=ORIENTED_EDGE('',*,*,#207,.T.);
#270=ORIENTED_EDGE('',*,*,#208,.T.);
#271=ORIENTED_EDGE('',*,*,#209,.T.);
#272=ORIENTED_EDGE('',*,*,#186,.T.);
#273=ORIENTED_EDGE('',*,*,#210,.T.);
#274=ORIENTED_EDGE('',*,*,#197,.F.);
#275=ORIENTED_EDGE('',*,*,#211,.F.);
#276=ORIENTED_EDGE('',*,*,#212,.F.);
#277=ORIENTED_EDGE('',*,*,#213,.F.);
#278=ORIENTED_EDGE('',*,*,#214,.T.);
#279=ORIENTED_EDGE('',*,*,#215,.T.);
#280=ORIENTED_EDGE('',*,*,#216,.T.);
#281=ORIENTED_EDGE('',*,*,#217,.T.);
#282=ORIENTED_EDGE('',*,*,#218,.T.);
#283=ORIENTED_EDGE('',*,*,#216,.F.);
#284=ORIENTED_EDGE('',*,*,#214,.F.);
#285=ORIENTED_EDGE('',*,*,#215,.F.);
#286=ORIENTED_EDGE('',*,*,#183,.F.);
#287=ORIENTED_EDGE('',*,*,#194,.T.);
#288=ORIENTED_EDGE('',*,*,#190,.T.);
#289=ORIENTED_EDGE('',*,*,#196,.F.);
#290=ORIENTED_EDGE('',*,*,#219,.T.);
#291=ORIENTED_EDGE('',*,*,#220,.T.);
#292=ORIENTED_EDGE('',*,*,#217,.F.);
#293=ORIENTED_EDGE('',*,*,#218,.F.);
#294=ORIENTED_EDGE('',*,*,#221,.F.);
#295=ORIENTED_EDGE('',*,*,#212,.T.);
#296=ORIENTED_EDGE('',*,*,#213,.T.);
#297=ORIENTED_EDGE('',*,*,#221,.T.);
#298=ORIENTED_EDGE('',*,*,#219,.F.);
#299=ORIENTED_EDGE('',*,*,#220,.F.);
#300=ORIENTED_EDGE('',*,*,#222,.F.);
#301=ORIENTED_EDGE('',*,*,#223,.T.);
#302=ORIENTED_EDGE('',*,*,#224,.T.);
#303=ORIENTED_EDGE('',*,*,#222,.T.);
#304=ORIENTED_EDGE('',*,*,#204,.F.);
#305=ORIENTED_EDGE('',*,*,#205,.F.);
#306=ORIENTED_EDGE('',*,*,#225,.F.);
#307=ORIENTED_EDGE('',*,*,#226,.T.);
#308=ORIENTED_EDGE('',*,*,#227,.T.);
#309=ORIENTED_EDGE('',*,*,#225,.T.);
#310=ORIENTED_EDGE('',*,*,#202,.F.);
#311=ORIENTED_EDGE('',*,*,#203,.F.);
#312=ORIENTED_EDGE('',*,*,#228,.F.);
#313=ORIENTED_EDGE('',*,*,#229,.T.);
#314=ORIENTED_EDGE('',*,*,#230,.T.);
#315=ORIENTED_EDGE('',*,*,#228,.T.);
#316=ORIENTED_EDGE('',*,*,#206,.F.);
#317=ORIENTED_EDGE('',*,*,#207,.F.);
#318=ORIENTED_EDGE('',*,*,#231,.F.);
#319=ORIENTED_EDGE('',*,*,#232,.T.);
#320=ORIENTED_EDGE('',*,*,#233,.T.);
#321=ORIENTED_EDGE('',*,*,#231,.T.);
#322=ORIENTED_EDGE('',*,*,#208,.F.);
#323=ORIENTED_EDGE('',*,*,#209,.F.);
#324=ORIENTED_EDGE('',*,*,#234,.T.);
#325=ORIENTED_EDGE('',*,*,#187,.T.);
#326=ORIENTED_EDGE('',*,*,#211,.T.);
#327=ORIENTED_EDGE('',*,*,#201,.T.);
#328=ORIENTED_EDGE('',*,*,#235,.F.);
#329=ORIENTED_EDGE('',*,*,#198,.F.);
#330=ORIENTED_EDGE('',*,*,#210,.F.);
#331=ORIENTED_EDGE('',*,*,#185,.F.);
#332=ORIENTED_EDGE('',*,*,#223,.F.);
#333=ORIENTED_EDGE('',*,*,#224,.F.);
#334=ORIENTED_EDGE('',*,*,#229,.F.);
#335=ORIENTED_EDGE('',*,*,#230,.F.);
#336=ORIENTED_EDGE('',*,*,#184,.F.);
#337=ORIENTED_EDGE('',*,*,#195,.T.);
#338=ORIENTED_EDGE('',*,*,#199,.T.);
#339=ORIENTED_EDGE('',*,*,#235,.T.);
#340=ORIENTED_EDGE('',*,*,#226,.F.);
#341=ORIENTED_EDGE('',*,*,#227,.F.);
#342=ORIENTED_EDGE('',*,*,#232,.F.);
#343=ORIENTED_EDGE('',*,*,#233,.F.);
#344=ORIENTED_EDGE('',*,*,#193,.F.);
#345=ORIENTED_EDGE('',*,*,#188,.F.);
#346=ORIENTED_EDGE('',*,*,#234,.F.);
#347=ORIENTED_EDGE('',*,*,#200,.T.);
#348=EDGE_LOOP('',(#236,#237,#238,#239));
#349=EDGE_LOOP('',(#240,#241,#242,#243,#244,#245));
#350=EDGE_LOOP('',(#246,#247,#248,#249));
#351=EDGE_LOOP('',(#250,#251,#252,#253));
#352=EDGE_LOOP('',(#254,#255,#256,#257));
#353=EDGE_LOOP('',(#258,#259,#260,#261,#262,#263));
#354=EDGE_LOOP('',(#264,#265));
#355=EDGE_LOOP('',(#266,#267));
#356=EDGE_LOOP('',(#268,#269));
#357=EDGE_LOOP('',(#270,#271));
#358=EDGE_LOOP('',(#272,#273,#274,#275));
#359=EDGE_LOOP('',(#276,#277));
#360=EDGE_LOOP('',(#278,#279));
#361=EDGE_LOOP('',(#280,#281,#282,#283,#284,#285));
#362=EDGE_LOOP('',(#286,#287,#288,#289));
#363=EDGE_LOOP('',(#290,#291));
#364=EDGE_LOOP('',(#292,#293));
#365=EDGE_LOOP('',(#294,#295,#296,#297,#298,#299));
#366=EDGE_LOOP('',(#300,#301,#302,#303,#304,#305));
#367=EDGE_LOOP('',(#306,#307,#308,#309,#310,#311));
#368=EDGE_LOOP('',(#312,#313,#314,#315,#316,#317));
#369=EDGE_LOOP('',(#318,#319,#320,#321,#322,#323));
#370=EDGE_LOOP('',(#324,#325,#326,#327));
#371=EDGE_LOOP('',(#328,#329,#330,#331));
#372=EDGE_LOOP('',(#332,#333));
#373=EDGE_LOOP('',(#334,#335));
#374=EDGE_LOOP('',(#336,#337,#338,#339));
#375=EDGE_LOOP('',(#340,#341));
#376=EDGE_LOOP('',(#342,#343));
#377=EDGE_LOOP('',(#344,#345,#346,#347));
#378=FACE_BOUND('',#348,.T.);
#379=FACE_BOUND('',#349,.T.);
#380=FACE_BOUND('',#350,.T.);
#381=FACE_BOUND('',#351,.T.);
#382=FACE_BOUND('',#352,.T.);
#383=FACE_BOUND('',#353,.T.);
#384=FACE_BOUND('',#354,.T.);
#385=FACE_BOUND('',#355,.T.);
#386=FACE_BOUND('',#356,.T.);
#387=FACE_BOUND('',#357,.T.);
#388=FACE_BOUND('',#358,.T.);
#389=FACE_BOUND('',#359,.T.);
#390=FACE_BOUND('',#360,.T.);
#391=FACE_BOUND('',#361,.T.);
#392=FACE_BOUND('',#362,.T.);
#393=FACE_BOUND('',#363,.T.);
#394=FACE_BOUND('',#364,.T.);
#395=FACE_BOUND('',#365,.T.);
#396=FACE_BOUND('',#366,.T.);
#397=FACE_BOUND('',#367,.T.);
#398=FACE_BOUND('',#368,.T.);
#399=FACE_BOUND('',#369,.T.);
#400=FACE_BOUND('',#370,.T.);
#401=FACE_BOUND('',#371,.T.);
#402=FACE_BOUND('',#372,.T.);
#403=FACE_BOUND('',#373,.T.);
#404=FACE_BOUND('',#374,.T.);
#405=FACE_BOUND('',#375,.T.);
#406=FACE_BOUND('',#376,.T.);
#407=FACE_BOUND('',#377,.T.);
#408=ADVANCED_FACE('',(#378),#646,.F.);
#409=ADVANCED_FACE('',(#379),#647,.F.);
#410=ADVANCED_FACE('',(#380),#648,.F.);
#411=ADVANCED_FACE('',(#381),#649,.T.);
#412=ADVANCED_FACE('',(#382),#650,.F.);
#413=ADVANCED_FACE('',(#383),#651,.F.);
#414=ADVANCED_FACE('',(#384,#385,#386,#387,#388),#652,.F.);
#415=ADVANCED_FACE('',(#389,#390),#653,.T.);
#416=ADVANCED_FACE('',(#391,#392),#60,.T.);
#417=ADVANCED_FACE('',(#393,#394),#654,.F.);
#418=ADVANCED_FACE('',(#395),#61,.F.);
#419=ADVANCED_FACE('',(#396),#62,.F.);
#420=ADVANCED_FACE('',(#397),#63,.F.);
#421=ADVANCED_FACE('',(#398),#64,.F.);
#422=ADVANCED_FACE('',(#399),#65,.F.);
#423=ADVANCED_FACE('',(#400),#655,.T.);
#424=ADVANCED_FACE('',(#401),#656,.F.);
#425=ADVANCED_FACE('',(#402,#403,#404),#657,.F.);
#426=ADVANCED_FACE('',(#405,#406,#407),#658,.F.);
#427=AXIS2_PLACEMENT_3D('',#543,#460,$);
#428=AXIS2_PLACEMENT_3D('',#552,#465,$);
#429=AXIS2_PLACEMENT_3D('',#562,#471,$);
#430=AXIS2_PLACEMENT_3D('',#571,#476,$);
#431=AXIS2_PLACEMENT_3D('',#573,#478,#479);
#432=AXIS2_PLACEMENT_3D('',#574,#480,$);
#433=AXIS2_PLACEMENT_3D('',#576,#482,#483);
#434=AXIS2_PLACEMENT_3D('',#577,#484,$);
#435=AXIS2_PLACEMENT_3D('',#587,#490,$);
#436=AXIS2_PLACEMENT_3D('',#588,#491,#492);
#437=AXIS2_PLACEMENT_3D('',#591,#493,#494);
#438=AXIS2_PLACEMENT_3D('',#594,#495,#496);
#439=AXIS2_PLACEMENT_3D('',#597,#497,#498);
#440=AXIS2_PLACEMENT_3D('',#602,#501,$);
#441=AXIS2_PLACEMENT_3D('',#603,#502,#503);
#442=AXIS2_PLACEMENT_3D('',#606,#504,#505);
#443=AXIS2_PLACEMENT_3D('',#609,#506,#507);
#444=AXIS2_PLACEMENT_3D('',#612,#509,#510);
#445=AXIS2_PLACEMENT_3D('',#614,#511,$);
#446=AXIS2_PLACEMENT_3D('',#615,#512,#513);
#447=AXIS2_PLACEMENT_3D('',#618,#514,#515);
#448=AXIS2_PLACEMENT_3D('',#620,#517,#518);
#449=AXIS2_PLACEMENT_3D('',#623,#520,#521);
#450=AXIS2_PLACEMENT_3D('',#625,#522,#523);
#451=AXIS2_PLACEMENT_3D('',#628,#525,#526);
#452=AXIS2_PLACEMENT_3D('',#630,#527,#528);
#453=AXIS2_PLACEMENT_3D('',#633,#530,#531);
#454=AXIS2_PLACEMENT_3D('',#635,#532,#533);
#455=AXIS2_PLACEMENT_3D('',#638,#535,#536);
#456=AXIS2_PLACEMENT_3D('',#640,#537,$);
#457=AXIS2_PLACEMENT_3D('',#642,#539,$);
#458=AXIS2_PLACEMENT_3D('',#644,#541,$);
#459=AXIS2_PLACEMENT_3D('',#645,#542,$);
#460=DIRECTION('',(0.729080675422139,0.684427767354597,0.));
#461=DIRECTION('',(0.684427767354597,-0.729080675422139,0.));
#462=DIRECTION('',(0.,0.,-1.));
#463=DIRECTION('',(0.684427767354597,-0.729080675422139,0.));
#464=DIRECTION('',(0.,9.76996261670138E-16,-1.));
#465=DIRECTION('',(1.,0.,0.));
#466=DIRECTION('',(0.,0.,-1.));
#467=DIRECTION('',(0.,-1.,0.));
#468=DIRECTION('',(0.,0.,-1.));
#469=DIRECTION('',(0.,-1.,0.));
#470=DIRECTION('',(0.,0.,-1.));
#471=DIRECTION('',(-0.612347050746202,-0.790589077487432,0.));
#472=DIRECTION('',(-0.790589077487432,0.612347050746202,0.));
#473=DIRECTION('',(0.,9.76996261670138E-16,-1.));
#474=DIRECTION('',(-0.790589077487432,0.612347050746201,0.));
#475=DIRECTION('',(0.,0.,-1.));
#476=DIRECTION('',(0.,0.,1.));
#477=DIRECTION('',(1.,0.,0.));
#478=DIRECTION('',(0.,0.,1.));
#479=DIRECTION('',(9.5,0.,0.));
#480=DIRECTION('',(0.,0.,1.));
#481=DIRECTION('',(1.,0.,0.));
#482=DIRECTION('',(0.,0.,1.));
#483=DIRECTION('',(9.5,0.,0.));
#484=DIRECTION('',(-1.,0.,0.));
#485=DIRECTION('',(0.,0.,-1.));
#486=DIRECTION('',(0.,1.,0.));
#487=DIRECTION('',(0.,0.,-1.));
#488=DIRECTION('',(0.,0.,-1.));
#489=DIRECTION('',(0.,1.,0.));
#490=DIRECTION('',(0.,1.,0.));
#491=DIRECTION('',(0.,1.,0.));
#492=DIRECTION('',(3.5,0.,0.));
#493=DIRECTION('',(0.,1.,0.));
#494=DIRECTION('',(3.5,0.,0.));
#495=DIRECTION('',(0.,1.,0.));
#496=DIRECTION('',(3.5,0.,0.));
#497=DIRECTION('',(0.,1.,0.));
#498=DIRECTION('',(3.5,0.,0.));
#499=DIRECTION('',(1.,0.,0.));
#500=DIRECTION('',(1.,0.,0.));
#501=DIRECTION('',(0.,0.,1.));
#502=DIRECTION('',(0.,0.,1.));
#503=DIRECTION('',(5.,0.,0.));
#504=DIRECTION('',(0.,0.,1.));
#505=DIRECTION('',(9.5,0.,0.));
#506=DIRECTION('',(0.,0.,1.));
#507=DIRECTION('',(-9.5,0.,0.));
#508=DIRECTION('',(0.,0.,-1.));
#509=DIRECTION('',(0.,0.,1.));
#510=DIRECTION('',(9.5,0.,0.));
#511=DIRECTION('',(0.,0.,1.));
#512=DIRECTION('',(0.,0.,1.));
#513=DIRECTION('',(5.,0.,0.));
#514=DIRECTION('',(0.,0.,1.));
#515=DIRECTION('',(-5.,0.,0.));
#516=DIRECTION('',(0.,0.,-1.));
#517=DIRECTION('',(0.,1.,0.));
#518=DIRECTION('',(0.,0.,-3.5));
#519=DIRECTION('',(0.,-1.,0.));
#520=DIRECTION('',(0.,1.,0.));
#521=DIRECTION('',(3.5,0.,0.));
#522=DIRECTION('',(0.,1.,0.));
#523=DIRECTION('',(0.,0.,-3.5));
#524=DIRECTION('',(0.,-1.,0.));
#525=DIRECTION('',(0.,1.,0.));
#526=DIRECTION('',(3.5,0.,0.));
#527=DIRECTION('',(0.,1.,0.));
#528=DIRECTION('',(0.,0.,-3.5));
#529=DIRECTION('',(0.,-1.,0.));
#530=DIRECTION('',(0.,1.,0.));
#531=DIRECTION('',(3.5,0.,0.));
#532=DIRECTION('',(0.,1.,0.));
#533=DIRECTION('',(0.,0.,-3.5));
#534=DIRECTION('',(0.,-1.,0.));
#535=DIRECTION('',(0.,1.,0.));
#536=DIRECTION('',(3.5,0.,0.));
#537=DIRECTION('',(0.,0.,1.));
#538=DIRECTION('',(-1.,0.,0.));
#539=DIRECTION('',(0.,0.,1.));
#540=DIRECTION('',(-1.,0.,0.));
#541=DIRECTION('',(0.,-1.,0.));
#542=DIRECTION('',(0.,-1.,0.));
#543=CARTESIAN_POINT('',(-6.92626641651032,-6.50206378986867,5.));
#544=CARTESIAN_POINT('',(-6.92626641651032,-6.50206378986866,-5.));
#545=CARTESIAN_POINT('',(-6.92626641651032,-6.50206378986866,-5.));
#546=CARTESIAN_POINT('',(9.5,-24.,-5.));
#547=CARTESIAN_POINT('',(9.5,-24.,5.));
#548=CARTESIAN_POINT('',(9.5,-24.,5.));
#549=CARTESIAN_POINT('',(-6.92626641651032,-6.50206378986867,5.));
#550=CARTESIAN_POINT('',(-6.92626641651032,-6.50206378986867,5.));
#551=CARTESIAN_POINT('',(-6.92626641651032,-6.50206378986867,5.));
#552=CARTESIAN_POINT('',(9.5,-24.,5.));
#553=CARTESIAN_POINT('',(9.5,-24.,-5.));
#554=CARTESIAN_POINT('',(9.5,-24.,-20.5));
#555=CARTESIAN_POINT('',(9.5,-24.,-20.5));
#556=CARTESIAN_POINT('',(9.5,-32.,-20.5));
#557=CARTESIAN_POINT('',(9.5,-32.,20.5));
#558=CARTESIAN_POINT('',(9.5,-32.,20.5));
#559=CARTESIAN_POINT('',(9.5,-24.,20.5));
#560=CARTESIAN_POINT('',(9.5,-24.,20.5));
#561=CARTESIAN_POINT('',(9.5,-24.,20.5));
#562=CARTESIAN_POINT('',(46.5,-24.,5.));
#563=CARTESIAN_POINT('',(46.5,-24.,-5.));
#564=CARTESIAN_POINT('',(46.5,-24.,-5.));
#565=CARTESIAN_POINT('',(5.81729698208892,7.51059623613062,-5.));
#566=CARTESIAN_POINT('',(5.81729698208891,7.5105962361306,5.));
#567=CARTESIAN_POINT('',(5.81729698208892,7.51059623613061,5.));
#568=CARTESIAN_POINT('',(46.5,-24.,5.));
#569=CARTESIAN_POINT('',(46.5,-24.,5.));
#570=CARTESIAN_POINT('',(46.5,-24.,5.));
#571=CARTESIAN_POINT('',(-1.30104260698261E-15,1.73472347597681E-15,5.));
#572=CARTESIAN_POINT('',(9.5,-24.,5.));
#573=CARTESIAN_POINT('',(0.,0.,5.));
#574=CARTESIAN_POINT('',(-1.30104260698261E-15,1.73472347597681E-15,-5.));
#575=CARTESIAN_POINT('',(9.5,-24.,-5.));
#576=CARTESIAN_POINT('',(0.,0.,-5.));
#577=CARTESIAN_POINT('',(46.5,-32.,5.));
#578=CARTESIAN_POINT('',(46.5,-32.,20.5));
#579=CARTESIAN_POINT('',(46.5,-32.,20.5));
#580=CARTESIAN_POINT('',(46.5,-32.,-20.5));
#581=CARTESIAN_POINT('',(46.5,-32.,-20.5));
#582=CARTESIAN_POINT('',(46.5,-24.,-20.5));
#583=CARTESIAN_POINT('',(46.5,-24.,-5.));
#584=CARTESIAN_POINT('',(46.5,-24.,20.5));
#585=CARTESIAN_POINT('',(46.5,-24.,20.5));
#586=CARTESIAN_POINT('',(46.5,-32.,20.5));
#587=CARTESIAN_POINT('',(9.5,-32.,5.));
#588=CARTESIAN_POINT('',(38.,-32.,12.5));
#589=CARTESIAN_POINT('',(41.5,-32.,12.5));
#590=CARTESIAN_POINT('',(38.,-32.,9.));
#591=CARTESIAN_POINT('',(18.,-32.,-12.5));
#592=CARTESIAN_POINT('',(21.5,-32.,-12.5));
#593=CARTESIAN_POINT('',(18.,-32.,-16.));
#594=CARTESIAN_POINT('',(38.,-32.,-12.5));
#595=CARTESIAN_POINT('',(41.5,-32.,-12.5));
#596=CARTESIAN_POINT('',(38.,-32.,-16.));
#597=CARTESIAN_POINT('',(18.,-32.,12.5));
#598=CARTESIAN_POINT('',(21.5,-32.,12.5));
#599=CARTESIAN_POINT('',(18.,-32.,9.));
#600=CARTESIAN_POINT('',(9.5,-32.,-20.5));
#601=CARTESIAN_POINT('',(9.5,-32.,20.5));
#602=CARTESIAN_POINT('',(0.,0.,13.));
#603=CARTESIAN_POINT('',(0.,0.,13.));
#604=CARTESIAN_POINT('',(-5.,3.06161699786838E-16,13.));
#605=CARTESIAN_POINT('',(5.,-6.12323399573677E-16,13.));
#606=CARTESIAN_POINT('',(0.,0.,13.));
#607=CARTESIAN_POINT('',(9.5,-1.16341445918999E-15,13.));
#608=CARTESIAN_POINT('',(-9.5,5.81707229594993E-16,13.));
#609=CARTESIAN_POINT('',(0.,0.,13.));
#610=CARTESIAN_POINT('',(-9.5,0.,-13.));
#611=CARTESIAN_POINT('',(-9.5,5.81707229594993E-16,-13.));
#612=CARTESIAN_POINT('',(0.,0.,-13.));
#613=CARTESIAN_POINT('',(9.5,-1.16341445918999E-15,-13.));
#614=CARTESIAN_POINT('',(0.,0.,-13.));
#615=CARTESIAN_POINT('',(0.,0.,-13.));
#616=CARTESIAN_POINT('',(5.,-6.12323399573677E-16,-13.));
#617=CARTESIAN_POINT('',(-5.,3.06161699786838E-16,-13.));
#618=CARTESIAN_POINT('',(0.,0.,13.));
#619=CARTESIAN_POINT('',(-5.,0.,-13.));
#620=CARTESIAN_POINT('',(18.,-24.,-12.5));
#621=CARTESIAN_POINT('',(18.,-32.,-16.));
#622=CARTESIAN_POINT('',(18.,-24.,-16.));
#623=CARTESIAN_POINT('',(18.,-24.,-12.5));
#624=CARTESIAN_POINT('',(21.5,-24.,-12.5));
#625=CARTESIAN_POINT('',(38.,-24.,12.5));
#626=CARTESIAN_POINT('',(38.,-32.,9.));
#627=CARTESIAN_POINT('',(38.,-24.,9.));
#628=CARTESIAN_POINT('',(38.,-24.,12.5));
#629=CARTESIAN_POINT('',(41.5,-24.,12.5));
#630=CARTESIAN_POINT('',(38.,-24.,-12.5));
#631=CARTESIAN_POINT('',(38.,-32.,-16.));
#632=CARTESIAN_POINT('',(38.,-24.,-16.));
#633=CARTESIAN_POINT('',(38.,-24.,-12.5));
#634=CARTESIAN_POINT('',(41.5,-24.,-12.5));
#635=CARTESIAN_POINT('',(18.,-24.,12.5));
#636=CARTESIAN_POINT('',(18.,-32.,9.));
#637=CARTESIAN_POINT('',(18.,-24.,9.));
#638=CARTESIAN_POINT('',(18.,-24.,12.5));
#639=CARTESIAN_POINT('',(21.5,-24.,12.5));
#640=CARTESIAN_POINT('',(0.,0.,20.5));
#641=CARTESIAN_POINT('',(46.5,-24.,20.5));
#642=CARTESIAN_POINT('',(0.,0.,-20.5));
#643=CARTESIAN_POINT('',(46.5,-24.,-20.5));
#644=CARTESIAN_POINT('',(46.5,-24.,20.5));
#645=CARTESIAN_POINT('',(46.5,-24.,20.5));
#646=PLANE('',#427);
#647=PLANE('',#428);
#648=PLANE('',#429);
#649=PLANE('',#430);
#650=PLANE('',#432);
#651=PLANE('',#434);
#652=PLANE('',#435);
#653=PLANE('',#440);
#654=PLANE('',#445);
#655=PLANE('',#456);
#656=PLANE('',#457);
#657=PLANE('',#458);
#658=PLANE('',#459);
#659=CLOSED_SHELL('',(#408,#409,#410,#411,#412,#413,#414,#415,#416,#417,
#418,#419,#420,#421,#422,#423,#424,#425,#426));
#660=MANIFOLD_SOLID_BREP('',#659);
#661=ADVANCED_BREP_SHAPE_REPRESENTATION('',(#660),#59);
ENDSEC;
END-ISO-10303-21;
