ISO-10303-21;
HEADER;
/* Generated by software containing ST-Developer
 * from STEP Tools, Inc. (www.steptools.com) 
 */

FILE_DESCRIPTION(
/* description */ ('Alibre Inc.'),
/* implementation_level */ '2;1');

FILE_NAME(
/* name */ 'export-AF64D2FA-357E-4C89-AF9D-6083C039DD00',
/* time_stamp */ '2021-06-29T09:00:15+02:00',
/* author */ (''),
/* organization */ (''),
/* preprocessor_version */ 'ST-DEVELOPER v17',
/* originating_system */ 'Alibre',
/* authorisation */ '');

FILE_SCHEMA (('AUTOMOTIVE_DESIGN'));
ENDSEC;

DATA;
#10=STYLED_ITEM('NAME_0',(#46),#649);
#11=STYLED_ITEM('NAME_0',(#47),#367);
#12=STYLED_ITEM('NAME_0',(#47),#368);
#13=STYLED_ITEM('NAME_0',(#47),#369);
#14=STYLED_ITEM('NAME_0',(#47),#370);
#15=STYLED_ITEM('NAME_0',(#47),#371);
#16=STYLED_ITEM('NAME_0',(#47),#372);
#17=STYLED_ITEM('NAME_0',(#47),#373);
#18=STYLED_ITEM('NAME_0',(#47),#374);
#19=STYLED_ITEM('NAME_0',(#47),#375);
#20=STYLED_ITEM('NAME_0',(#47),#376);
#21=STYLED_ITEM('NAME_0',(#47),#377);
#22=STYLED_ITEM('NAME_0',(#47),#378);
#23=STYLED_ITEM('NAME_0',(#47),#379);
#24=STYLED_ITEM('NAME_0',(#47),#380);
#25=STYLED_ITEM('NAME_0',(#47),#381);
#26=STYLED_ITEM('NAME_0',(#47),#382);
#27=STYLED_ITEM('NAME_0',(#47),#383);
#28=STYLED_ITEM('NAME_0',(#47),#384);
#29=STYLED_ITEM('NAME_0',(#47),#385);
#30=STYLED_ITEM('NAME_0',(#47),#386);
#31=STYLED_ITEM('NAME_0',(#47),#387);
#32=STYLED_ITEM('NAME_0',(#47),#388);
#33=MECHANICAL_DESIGN_GEOMETRIC_PRESENTATION_REPRESENTATION('NAME_0',(#10,
#11,#12,#13,#14,#15,#16,#17,#18,#19,#20,#21,#22,#23,#24,#25,#26,#27,#28,
#29,#30,#31,#32),#62);
#34=COLOUR_RGB('',0.882352941176471,0.882352941176471,0.882352941176471);
#35=COLOUR_RGB('',0.686274509803922,0.686274509803922,0.686274509803922);
#36=FILL_AREA_STYLE_COLOUR('NAME_0',#34);
#37=FILL_AREA_STYLE_COLOUR('NAME_0',#35);
#38=FILL_AREA_STYLE('NAME_0',(#36));
#39=FILL_AREA_STYLE('NAME_0',(#37));
#40=SURFACE_STYLE_FILL_AREA(#38);
#41=SURFACE_STYLE_FILL_AREA(#39);
#42=SURFACE_SIDE_STYLE('NAME_0',(#40));
#43=SURFACE_SIDE_STYLE('NAME_0',(#41));
#44=SURFACE_STYLE_USAGE(.POSITIVE.,#42);
#45=SURFACE_STYLE_USAGE(.POSITIVE.,#43);
#46=PRESENTATION_STYLE_ASSIGNMENT((#44));
#47=PRESENTATION_STYLE_ASSIGNMENT((#45));
#48=PRODUCT_DEFINITION_CONTEXT('part definition',#55,'design');
#49=SHAPE_DEFINITION_REPRESENTATION(#50,#650);
#50=PRODUCT_DEFINITION_SHAPE('PRODUCT_VERSION_ID',
'PRODUCT_VERSION_DESCR',#51);
#51=PRODUCT_DEFINITION('PRODUCT_VERSION_ID','PRODUCT_VERSION_DESCR',#52,
#48);
#52=PRODUCT_DEFINITION_FORMATION_WITH_SPECIFIED_SOURCE(
'PRODUCT_VERSION_ID','PRODUCT_VERSION_DESCR',#57,.MADE.);
#53=PRODUCT_RELATED_PRODUCT_CATEGORY('part','part',(#57));
#54=APPLICATION_PROTOCOL_DEFINITION('Draft International Standard',
'automotive_design',1994,#55);
#55=APPLICATION_CONTEXT('automotive_Design');
#56=PRODUCT_CONTEXT('3D Mechanical Parts',#55,'mechanical');
#57=PRODUCT('_W0950402025-43','4027 W0950402025  Rod-Eye GA-M M12x1.25',
'',(#56));
#58=(
LENGTH_UNIT()
NAMED_UNIT(*)
SI_UNIT(.MILLI.,.METRE.)
);
#59=(
NAMED_UNIT(*)
PLANE_ANGLE_UNIT()
SI_UNIT($,.RADIAN.)
);
#60=(
NAMED_UNIT(*)
SI_UNIT($,.STERADIAN.)
SOLID_ANGLE_UNIT()
);
#61=UNCERTAINTY_MEASURE_WITH_UNIT(LENGTH_MEASURE(1.E-6),#58,
'DISTANCE_ACCURACY_VALUE',
'Maximum model space distance between geometric entities at asserted c
onnectivities');
#62=(
GEOMETRIC_REPRESENTATION_CONTEXT(3)
GLOBAL_UNCERTAINTY_ASSIGNED_CONTEXT((#61))
GLOBAL_UNIT_ASSIGNED_CONTEXT((#60,#59,#58))
REPRESENTATION_CONTEXT('ID1','3D')
);
#63=ELLIPSE('',#411,13.6125834850286,8.75);
#64=ELLIPSE('',#423,13.6125834850286,8.75);
#65=ELLIPSE('',#425,13.6125834850286,8.75);
#66=PLANE('',#406);
#67=PLANE('',#408);
#68=PLANE('',#410);
#69=PLANE('',#412);
#70=PLANE('',#413);
#71=PLANE('',#419);
#72=PLANE('',#428);
#73=PLANE('',#429);
#74=PLANE('',#434);
#75=PLANE('',#435);
#76=(
BOUNDED_CURVE()
B_SPLINE_CURVE(2,(#468,#469,#470),.UNSPECIFIED.,.F.,.U.)
B_SPLINE_CURVE_WITH_KNOTS((3,3),(0.0441780269558422,11.0463552065413),
 .UNSPECIFIED.)
CURVE()
GEOMETRIC_REPRESENTATION_ITEM()
RATIONAL_B_SPLINE_CURVE((1.0003196871084,1.03996883765812,1.00063062564136))
REPRESENTATION_ITEM('')
);
#77=(
BOUNDED_CURVE()
B_SPLINE_CURVE(2,(#472,#473,#474),.UNSPECIFIED.,.F.,.U.)
B_SPLINE_CURVE_WITH_KNOTS((3,3),(0.0874887633246881,11.0896659428456),
 .UNSPECIFIED.)
CURVE()
GEOMETRIC_REPRESENTATION_ITEM()
RATIONAL_B_SPLINE_CURVE((1.00063062564182,1.03996883765791,1.0003196871084))
REPRESENTATION_ITEM('')
);
#78=(
BOUNDED_CURVE()
B_SPLINE_CURVE(2,(#480,#481,#482),.UNSPECIFIED.,.F.,.U.)
B_SPLINE_CURVE_WITH_KNOTS((3,3),(0.0874887642420601,11.0896659428461),
 .UNSPECIFIED.)
CURVE()
GEOMETRIC_REPRESENTATION_ITEM()
RATIONAL_B_SPLINE_CURVE((1.00063062564838,1.03996883765456,1.0003196871084))
REPRESENTATION_ITEM('')
);
#79=(
BOUNDED_CURVE()
B_SPLINE_CURVE(2,(#490,#491,#492),.UNSPECIFIED.,.F.,.U.)
B_SPLINE_CURVE_WITH_KNOTS((3,3),(0.0441780269558425,11.0463552056247),
 .UNSPECIFIED.)
CURVE()
GEOMETRIC_REPRESENTATION_ITEM()
RATIONAL_B_SPLINE_CURVE((1.0003196871084,1.03996883765479,1.00063062564791))
REPRESENTATION_ITEM('')
);
#80=SPHERICAL_SURFACE('',#397,16.);
#81=SPHERICAL_SURFACE('',#430,11.11);
#82=SPHERICAL_SURFACE('',#432,11.11);
#83=CYLINDRICAL_SURFACE('',#391,5.3235);
#84=CYLINDRICAL_SURFACE('',#393,6.);
#85=CYLINDRICAL_SURFACE('',#417,11.);
#86=CYLINDRICAL_SURFACE('',#422,8.75);
#87=CYLINDRICAL_SURFACE('',#427,11.);
#88=CIRCLE('',#390,5.3235);
#89=CIRCLE('',#392,5.3235);
#90=CIRCLE('',#394,6.);
#91=CIRCLE('',#395,6.);
#92=CIRCLE('',#396,6.);
#93=CIRCLE('',#398,16.);
#94=CIRCLE('',#399,13.9157635495255);
#95=CIRCLE('',#400,14.8323969741913);
#96=CIRCLE('',#401,13.9157635495255);
#97=CIRCLE('',#402,14.8323969741913);
#98=CIRCLE('',#403,13.9157635495255);
#99=CIRCLE('',#405,8.75);
#100=CIRCLE('',#407,9.35051335489127);
#101=CIRCLE('',#409,9.35051335489127);
#102=CIRCLE('',#414,6.00000000000345);
#103=CIRCLE('',#415,11.);
#104=CIRCLE('',#416,11.);
#105=CIRCLE('',#418,11.);
#106=CIRCLE('',#420,11.);
#107=CIRCLE('',#421,8.75);
#108=CIRCLE('',#424,8.75);
#109=CIRCLE('',#431,7.70922175060492);
#110=CIRCLE('',#433,7.70922175060492);
#111=VERTEX_POINT('',#439);
#112=VERTEX_POINT('',#440);
#113=VERTEX_POINT('',#444);
#114=VERTEX_POINT('',#448);
#115=VERTEX_POINT('',#449);
#116=VERTEX_POINT('',#452);
#117=VERTEX_POINT('',#456);
#118=VERTEX_POINT('',#457);
#119=VERTEX_POINT('',#459);
#120=VERTEX_POINT('',#461);
#121=VERTEX_POINT('',#463);
#122=VERTEX_POINT('',#465);
#123=VERTEX_POINT('',#471);
#124=VERTEX_POINT('',#475);
#125=VERTEX_POINT('',#479);
#126=VERTEX_POINT('',#483);
#127=VERTEX_POINT('',#487);
#128=VERTEX_POINT('',#489);
#129=VERTEX_POINT('',#497);
#130=VERTEX_POINT('',#498);
#131=VERTEX_POINT('',#500);
#132=VERTEX_POINT('',#502);
#133=VERTEX_POINT('',#506);
#134=VERTEX_POINT('',#508);
#135=VERTEX_POINT('',#509);
#136=VERTEX_POINT('',#514);
#137=VERTEX_POINT('',#518);
#138=VERTEX_POINT('',#521);
#139=VERTEX_POINT('',#524);
#140=VERTEX_POINT('',#535);
#141=VERTEX_POINT('',#538);
#142=VECTOR('',#545,1.);
#143=VECTOR('',#550,1.);
#144=VECTOR('',#555,1.);
#145=VECTOR('',#583,1.);
#146=VECTOR('',#587,1.);
#147=VECTOR('',#592,1.);
#148=VECTOR('',#593,1.);
#149=VECTOR('',#594,1.);
#150=VECTOR('',#595,1.);
#151=VECTOR('',#599,1.);
#152=VECTOR('',#608,1.);
#153=VECTOR('',#612,1.);
#154=VECTOR('',#617,1.);
#155=VECTOR('',#628,1.);
#156=VECTOR('',#643,1.);
#157=LINE('',#438,#142);
#158=LINE('',#443,#143);
#159=LINE('',#447,#144);
#160=LINE('',#484,#145);
#161=LINE('',#488,#146);
#162=LINE('',#496,#147);
#163=LINE('',#499,#148);
#164=LINE('',#501,#149);
#165=LINE('',#503,#150);
#166=LINE('',#507,#151);
#167=LINE('',#515,#152);
#168=LINE('',#519,#153);
#169=LINE('',#523,#154);
#170=LINE('',#530,#155);
#171=LINE('',#542,#156);
#172=EDGE_CURVE('',#111,#112,#157,.T.);
#173=EDGE_CURVE('',#111,#111,#88,.T.);
#174=EDGE_CURVE('',#111,#113,#158,.T.);
#175=EDGE_CURVE('',#113,#113,#89,.F.);
#176=EDGE_CURVE('',#114,#115,#159,.T.);
#177=EDGE_CURVE('',#114,#114,#90,.T.);
#178=EDGE_CURVE('',#115,#116,#91,.T.);
#179=EDGE_CURVE('',#116,#115,#92,.T.);
#180=EDGE_CURVE('',#117,#118,#93,.T.);
#181=EDGE_CURVE('',#119,#117,#94,.F.);
#182=EDGE_CURVE('',#119,#120,#95,.T.);
#183=EDGE_CURVE('',#121,#120,#96,.F.);
#184=EDGE_CURVE('',#121,#122,#97,.T.);
#185=EDGE_CURVE('',#117,#122,#98,.F.);
#186=EDGE_CURVE('',#121,#123,#76,.T.);
#187=EDGE_CURVE('',#124,#120,#77,.T.);
#188=EDGE_CURVE('',#123,#124,#99,.F.);
#189=EDGE_CURVE('',#125,#125,#100,.T.);
#190=EDGE_CURVE('',#119,#126,#78,.F.);
#191=EDGE_CURVE('',#126,#124,#160,.F.);
#192=EDGE_CURVE('',#127,#127,#101,.T.);
#193=EDGE_CURVE('',#128,#123,#161,.T.);
#194=EDGE_CURVE('',#128,#122,#79,.F.);
#195=EDGE_CURVE('',#123,#128,#63,.T.);
#196=EDGE_CURVE('',#129,#130,#162,.T.);
#197=EDGE_CURVE('',#130,#131,#163,.F.);
#198=EDGE_CURVE('',#131,#132,#164,.T.);
#199=EDGE_CURVE('',#132,#129,#165,.F.);
#200=EDGE_CURVE('',#133,#133,#102,.T.);
#201=EDGE_CURVE('',#134,#135,#166,.T.);
#202=EDGE_CURVE('',#134,#131,#103,.F.);
#203=EDGE_CURVE('',#130,#135,#104,.F.);
#204=EDGE_CURVE('',#129,#136,#105,.F.);
#205=EDGE_CURVE('',#135,#136,#167,.F.);
#206=EDGE_CURVE('',#137,#132,#106,.T.);
#207=EDGE_CURVE('',#136,#137,#168,.T.);
#208=EDGE_CURVE('',#138,#138,#107,.T.);
#209=EDGE_CURVE('',#139,#138,#169,.T.);
#210=EDGE_CURVE('',#126,#139,#64,.F.);
#211=EDGE_CURVE('',#126,#128,#108,.T.);
#212=EDGE_CURVE('',#139,#124,#65,.F.);
#213=EDGE_CURVE('',#137,#134,#170,.F.);
#214=EDGE_CURVE('',#140,#140,#109,.T.);
#215=EDGE_CURVE('',#141,#141,#110,.T.);
#216=EDGE_CURVE('',#133,#113,#171,.T.);
#217=ORIENTED_EDGE('',*,*,#172,.F.);
#218=ORIENTED_EDGE('',*,*,#173,.T.);
#219=ORIENTED_EDGE('',*,*,#172,.T.);
#220=ORIENTED_EDGE('',*,*,#174,.F.);
#221=ORIENTED_EDGE('',*,*,#173,.F.);
#222=ORIENTED_EDGE('',*,*,#174,.T.);
#223=ORIENTED_EDGE('',*,*,#175,.T.);
#224=ORIENTED_EDGE('',*,*,#176,.F.);
#225=ORIENTED_EDGE('',*,*,#177,.T.);
#226=ORIENTED_EDGE('',*,*,#176,.T.);
#227=ORIENTED_EDGE('',*,*,#178,.T.);
#228=ORIENTED_EDGE('',*,*,#179,.T.);
#229=ORIENTED_EDGE('',*,*,#180,.T.);
#230=ORIENTED_EDGE('',*,*,#180,.F.);
#231=ORIENTED_EDGE('',*,*,#181,.F.);
#232=ORIENTED_EDGE('',*,*,#182,.T.);
#233=ORIENTED_EDGE('',*,*,#183,.F.);
#234=ORIENTED_EDGE('',*,*,#184,.T.);
#235=ORIENTED_EDGE('',*,*,#185,.F.);
#236=ORIENTED_EDGE('',*,*,#186,.F.);
#237=ORIENTED_EDGE('',*,*,#183,.T.);
#238=ORIENTED_EDGE('',*,*,#187,.F.);
#239=ORIENTED_EDGE('',*,*,#188,.F.);
#240=ORIENTED_EDGE('',*,*,#189,.F.);
#241=ORIENTED_EDGE('',*,*,#190,.T.);
#242=ORIENTED_EDGE('',*,*,#191,.T.);
#243=ORIENTED_EDGE('',*,*,#187,.T.);
#244=ORIENTED_EDGE('',*,*,#182,.F.);
#245=ORIENTED_EDGE('',*,*,#192,.F.);
#246=ORIENTED_EDGE('',*,*,#186,.T.);
#247=ORIENTED_EDGE('',*,*,#193,.F.);
#248=ORIENTED_EDGE('',*,*,#194,.T.);
#249=ORIENTED_EDGE('',*,*,#184,.F.);
#250=ORIENTED_EDGE('',*,*,#195,.T.);
#251=ORIENTED_EDGE('',*,*,#193,.T.);
#252=ORIENTED_EDGE('',*,*,#196,.T.);
#253=ORIENTED_EDGE('',*,*,#197,.T.);
#254=ORIENTED_EDGE('',*,*,#198,.T.);
#255=ORIENTED_EDGE('',*,*,#199,.T.);
#256=ORIENTED_EDGE('',*,*,#200,.F.);
#257=ORIENTED_EDGE('',*,*,#201,.F.);
#258=ORIENTED_EDGE('',*,*,#202,.T.);
#259=ORIENTED_EDGE('',*,*,#197,.F.);
#260=ORIENTED_EDGE('',*,*,#203,.T.);
#261=ORIENTED_EDGE('',*,*,#196,.F.);
#262=ORIENTED_EDGE('',*,*,#204,.T.);
#263=ORIENTED_EDGE('',*,*,#205,.F.);
#264=ORIENTED_EDGE('',*,*,#203,.F.);
#265=ORIENTED_EDGE('',*,*,#206,.F.);
#266=ORIENTED_EDGE('',*,*,#207,.F.);
#267=ORIENTED_EDGE('',*,*,#204,.F.);
#268=ORIENTED_EDGE('',*,*,#199,.F.);
#269=ORIENTED_EDGE('',*,*,#208,.T.);
#270=ORIENTED_EDGE('',*,*,#209,.T.);
#271=ORIENTED_EDGE('',*,*,#208,.F.);
#272=ORIENTED_EDGE('',*,*,#209,.F.);
#273=ORIENTED_EDGE('',*,*,#210,.F.);
#274=ORIENTED_EDGE('',*,*,#211,.T.);
#275=ORIENTED_EDGE('',*,*,#195,.F.);
#276=ORIENTED_EDGE('',*,*,#188,.T.);
#277=ORIENTED_EDGE('',*,*,#212,.F.);
#278=ORIENTED_EDGE('',*,*,#190,.F.);
#279=ORIENTED_EDGE('',*,*,#181,.T.);
#280=ORIENTED_EDGE('',*,*,#185,.T.);
#281=ORIENTED_EDGE('',*,*,#194,.F.);
#282=ORIENTED_EDGE('',*,*,#211,.F.);
#283=ORIENTED_EDGE('',*,*,#213,.F.);
#284=ORIENTED_EDGE('',*,*,#206,.T.);
#285=ORIENTED_EDGE('',*,*,#198,.F.);
#286=ORIENTED_EDGE('',*,*,#202,.F.);
#287=ORIENTED_EDGE('',*,*,#213,.T.);
#288=ORIENTED_EDGE('',*,*,#201,.T.);
#289=ORIENTED_EDGE('',*,*,#205,.T.);
#290=ORIENTED_EDGE('',*,*,#207,.T.);
#291=ORIENTED_EDGE('',*,*,#210,.T.);
#292=ORIENTED_EDGE('',*,*,#212,.T.);
#293=ORIENTED_EDGE('',*,*,#191,.F.);
#294=ORIENTED_EDGE('',*,*,#214,.F.);
#295=ORIENTED_EDGE('',*,*,#192,.T.);
#296=ORIENTED_EDGE('',*,*,#215,.F.);
#297=ORIENTED_EDGE('',*,*,#189,.T.);
#298=ORIENTED_EDGE('',*,*,#178,.F.);
#299=ORIENTED_EDGE('',*,*,#179,.F.);
#300=ORIENTED_EDGE('',*,*,#215,.T.);
#301=ORIENTED_EDGE('',*,*,#177,.F.);
#302=ORIENTED_EDGE('',*,*,#214,.T.);
#303=ORIENTED_EDGE('',*,*,#216,.F.);
#304=ORIENTED_EDGE('',*,*,#200,.T.);
#305=ORIENTED_EDGE('',*,*,#216,.T.);
#306=ORIENTED_EDGE('',*,*,#175,.F.);
#307=EDGE_LOOP('',(#217,#218,#219));
#308=EDGE_LOOP('',(#220,#221,#222,#223));
#309=EDGE_LOOP('',(#224,#225,#226,#227,#228));
#310=EDGE_LOOP('',(#229,#230,#231,#232,#233,#234,#235));
#311=EDGE_LOOP('',(#236,#237,#238,#239));
#312=EDGE_LOOP('',(#240));
#313=EDGE_LOOP('',(#241,#242,#243,#244));
#314=EDGE_LOOP('',(#245));
#315=EDGE_LOOP('',(#246,#247,#248,#249));
#316=EDGE_LOOP('',(#250,#251));
#317=EDGE_LOOP('',(#252,#253,#254,#255));
#318=EDGE_LOOP('',(#256));
#319=EDGE_LOOP('',(#257,#258,#259,#260));
#320=EDGE_LOOP('',(#261,#262,#263,#264));
#321=EDGE_LOOP('',(#265,#266,#267,#268));
#322=EDGE_LOOP('',(#269));
#323=EDGE_LOOP('',(#270,#271,#272,#273,#274,#275,#276,#277));
#324=EDGE_LOOP('',(#278,#279,#280,#281,#282));
#325=EDGE_LOOP('',(#283,#284,#285,#286));
#326=EDGE_LOOP('',(#287,#288,#289,#290));
#327=EDGE_LOOP('',(#291,#292,#293));
#328=EDGE_LOOP('',(#294));
#329=EDGE_LOOP('',(#295));
#330=EDGE_LOOP('',(#296));
#331=EDGE_LOOP('',(#297));
#332=EDGE_LOOP('',(#298,#299));
#333=EDGE_LOOP('',(#300));
#334=EDGE_LOOP('',(#301));
#335=EDGE_LOOP('',(#302));
#336=EDGE_LOOP('',(#303,#304,#305,#306));
#337=FACE_BOUND('',#307,.T.);
#338=FACE_BOUND('',#308,.T.);
#339=FACE_BOUND('',#309,.T.);
#340=FACE_BOUND('',#310,.T.);
#341=FACE_BOUND('',#311,.T.);
#342=FACE_BOUND('',#312,.T.);
#343=FACE_BOUND('',#313,.T.);
#344=FACE_BOUND('',#314,.T.);
#345=FACE_BOUND('',#315,.T.);
#346=FACE_BOUND('',#316,.T.);
#347=FACE_BOUND('',#317,.T.);
#348=FACE_BOUND('',#318,.T.);
#349=FACE_BOUND('',#319,.T.);
#350=FACE_BOUND('',#320,.T.);
#351=FACE_BOUND('',#321,.T.);
#352=FACE_BOUND('',#322,.T.);
#353=FACE_BOUND('',#323,.T.);
#354=FACE_BOUND('',#324,.T.);
#355=FACE_BOUND('',#325,.T.);
#356=FACE_BOUND('',#326,.T.);
#357=FACE_BOUND('',#327,.T.);
#358=FACE_BOUND('',#328,.T.);
#359=FACE_BOUND('',#329,.T.);
#360=FACE_BOUND('',#330,.T.);
#361=FACE_BOUND('',#331,.T.);
#362=FACE_BOUND('',#332,.T.);
#363=FACE_BOUND('',#333,.T.);
#364=FACE_BOUND('',#334,.T.);
#365=FACE_BOUND('',#335,.T.);
#366=FACE_BOUND('',#336,.T.);
#367=ADVANCED_FACE('',(#337),#644,.F.);
#368=ADVANCED_FACE('',(#338),#83,.F.);
#369=ADVANCED_FACE('',(#339),#84,.F.);
#370=ADVANCED_FACE('',(#340),#80,.T.);
#371=ADVANCED_FACE('',(#341),#645,.T.);
#372=ADVANCED_FACE('',(#342,#343),#66,.T.);
#373=ADVANCED_FACE('',(#344,#345),#67,.T.);
#374=ADVANCED_FACE('',(#346),#68,.T.);
#375=ADVANCED_FACE('',(#347),#69,.T.);
#376=ADVANCED_FACE('',(#348,#349),#70,.F.);
#377=ADVANCED_FACE('',(#350),#85,.T.);
#378=ADVANCED_FACE('',(#351,#352),#71,.F.);
#379=ADVANCED_FACE('',(#353),#86,.T.);
#380=ADVANCED_FACE('',(#354),#646,.T.);
#381=ADVANCED_FACE('',(#355),#87,.T.);
#382=ADVANCED_FACE('',(#356),#72,.T.);
#383=ADVANCED_FACE('',(#357),#73,.T.);
#384=ADVANCED_FACE('',(#358,#359),#81,.T.);
#385=ADVANCED_FACE('',(#360,#361),#82,.T.);
#386=ADVANCED_FACE('',(#362,#363),#74,.F.);
#387=ADVANCED_FACE('',(#364,#365),#75,.F.);
#388=ADVANCED_FACE('',(#366),#647,.F.);
#389=AXIS2_PLACEMENT_3D('',#437,#543,#544);
#390=AXIS2_PLACEMENT_3D('',#441,#546,#547);
#391=AXIS2_PLACEMENT_3D('',#442,#548,#549);
#392=AXIS2_PLACEMENT_3D('',#445,#551,#552);
#393=AXIS2_PLACEMENT_3D('',#446,#553,#554);
#394=AXIS2_PLACEMENT_3D('',#450,#556,#557);
#395=AXIS2_PLACEMENT_3D('',#451,#558,#559);
#396=AXIS2_PLACEMENT_3D('',#453,#560,#561);
#397=AXIS2_PLACEMENT_3D('',#454,#562,#563);
#398=AXIS2_PLACEMENT_3D('',#455,#564,#565);
#399=AXIS2_PLACEMENT_3D('',#458,#566,#567);
#400=AXIS2_PLACEMENT_3D('',#460,#568,#569);
#401=AXIS2_PLACEMENT_3D('',#462,#570,#571);
#402=AXIS2_PLACEMENT_3D('',#464,#572,#573);
#403=AXIS2_PLACEMENT_3D('',#466,#574,#575);
#404=AXIS2_PLACEMENT_3D('',#467,#576,#577);
#405=AXIS2_PLACEMENT_3D('',#476,#578,#579);
#406=AXIS2_PLACEMENT_3D('',#477,#580,$);
#407=AXIS2_PLACEMENT_3D('',#478,#581,#582);
#408=AXIS2_PLACEMENT_3D('',#485,#584,$);
#409=AXIS2_PLACEMENT_3D('',#486,#585,#586);
#410=AXIS2_PLACEMENT_3D('',#493,#588,$);
#411=AXIS2_PLACEMENT_3D('',#494,#589,#590);
#412=AXIS2_PLACEMENT_3D('',#495,#591,$);
#413=AXIS2_PLACEMENT_3D('',#504,#596,$);
#414=AXIS2_PLACEMENT_3D('',#505,#597,#598);
#415=AXIS2_PLACEMENT_3D('',#510,#600,#601);
#416=AXIS2_PLACEMENT_3D('',#511,#602,#603);
#417=AXIS2_PLACEMENT_3D('',#512,#604,#605);
#418=AXIS2_PLACEMENT_3D('',#513,#606,#607);
#419=AXIS2_PLACEMENT_3D('',#516,#609,$);
#420=AXIS2_PLACEMENT_3D('',#517,#610,#611);
#421=AXIS2_PLACEMENT_3D('',#520,#613,#614);
#422=AXIS2_PLACEMENT_3D('',#522,#615,#616);
#423=AXIS2_PLACEMENT_3D('',#525,#618,#619);
#424=AXIS2_PLACEMENT_3D('',#526,#620,#621);
#425=AXIS2_PLACEMENT_3D('',#527,#622,#623);
#426=AXIS2_PLACEMENT_3D('',#528,#624,#625);
#427=AXIS2_PLACEMENT_3D('',#529,#626,#627);
#428=AXIS2_PLACEMENT_3D('',#531,#629,$);
#429=AXIS2_PLACEMENT_3D('',#532,#630,$);
#430=AXIS2_PLACEMENT_3D('',#533,#631,#632);
#431=AXIS2_PLACEMENT_3D('',#534,#633,#634);
#432=AXIS2_PLACEMENT_3D('',#536,#635,#636);
#433=AXIS2_PLACEMENT_3D('',#537,#637,#638);
#434=AXIS2_PLACEMENT_3D('',#539,#639,$);
#435=AXIS2_PLACEMENT_3D('',#540,#640,$);
#436=AXIS2_PLACEMENT_3D('',#541,#641,#642);
#437=CARTESIAN_POINT('',(520.526475841969,0.,0.));
#438=CARTESIAN_POINT('',(-476.399999996049,0.,860.701903791201));
#439=CARTESIAN_POINT('',(23.5999999999999,-6.51940723526094E-16,-5.32349999659927));
#440=CARTESIAN_POINT('',(20.5264758459199,0.,0.));
#441=CARTESIAN_POINT('',(23.6000000039268,0.,0.));
#442=CARTESIAN_POINT('',(50.,0.,0.));
#443=CARTESIAN_POINT('',(22.9235,0.,-5.3235));
#444=CARTESIAN_POINT('',(49.3235,-3.0160496321629E-15,-5.3235));
#445=CARTESIAN_POINT('',(49.3235,0.,0.));
#446=CARTESIAN_POINT('',(0.,0.,16.));
#447=CARTESIAN_POINT('',(-6.,0.,-16.));
#448=CARTESIAN_POINT('',(-6.,7.34788079488412E-16,8.));
#449=CARTESIAN_POINT('',(-6.,-3.67394039744206E-16,-8.));
#450=CARTESIAN_POINT('',(0.,0.,8.));
#451=CARTESIAN_POINT('',(0.,0.,-8.));
#452=CARTESIAN_POINT('',(6.,3.67394039744206E-16,-8.));
#453=CARTESIAN_POINT('',(0.,0.,-8.));
#454=CARTESIAN_POINT('',(-1.73472347597681E-15,6.07153216591882E-15,0.));
#455=CARTESIAN_POINT('',(-1.73472347597681E-15,6.07153216591882E-15,0.));
#456=CARTESIAN_POINT('',(7.8962981731451,13.9157635493117,-2.62153048831628E-12));
#457=CARTESIAN_POINT('',(-16.,7.0512496052367E-15,0.));
#458=CARTESIAN_POINT('',(7.89629817274108,0.,0.));
#459=CARTESIAN_POINT('',(7.89629817274108,12.5558143967814,-5.99999999998987));
#460=CARTESIAN_POINT('',(-1.73472347597681E-15,6.07153216591882E-15,-6.));
#461=CARTESIAN_POINT('',(7.8962981727544,-12.5558143968026,-6.));
#462=CARTESIAN_POINT('',(7.89629817274108,0.,0.));
#463=CARTESIAN_POINT('',(7.89629817274108,-12.5558143967814,5.99999999998987));
#464=CARTESIAN_POINT('',(-1.73472347597681E-15,6.07153216591882E-15,6.));
#465=CARTESIAN_POINT('',(7.89629817275441,12.5558143968026,6.));
#466=CARTESIAN_POINT('',(7.89629817274108,0.,0.));
#467=CARTESIAN_POINT('',(7.89629817313843,0.,0.));
#468=CARTESIAN_POINT('',(7.89629817273885,-12.555814396778,6.));
#469=CARTESIAN_POINT('',(13.9362611377659,-8.75730742486783,6.));
#470=CARTESIAN_POINT('',(17.000000000568,-6.3688696013993,6.));
#471=CARTESIAN_POINT('',(17.0000000005306,-6.36886960142849,6.));
#472=CARTESIAN_POINT('',(17.0000000005306,-6.36886960142849,-6.));
#473=CARTESIAN_POINT('',(13.9362611377318,-8.75730742488926,-6.));
#474=CARTESIAN_POINT('',(7.89629817273886,-12.555814396778,-6.));
#475=CARTESIAN_POINT('',(17.0000000005306,-6.36886960142849,-6.));
#476=CARTESIAN_POINT('',(17.0000000005306,0.,0.));
#477=CARTESIAN_POINT('',(-33.,32.,-6.));
#478=CARTESIAN_POINT('',(-1.73472347597681E-15,8.67361737988404E-16,-6.));
#479=CARTESIAN_POINT('',(-9.35051335489691,-2.77745887057882E-16,-5.99999999999802));
#480=CARTESIAN_POINT('',(17.,6.36886960184213,-6.));
#481=CARTESIAN_POINT('',(13.9362611372477,8.75730742519367,-6.));
#482=CARTESIAN_POINT('',(7.89629817273886,12.555814396778,-6.));
#483=CARTESIAN_POINT('',(17.,6.36886960184213,-6.));
#484=CARTESIAN_POINT('',(17.,32.,-6.));
#485=CARTESIAN_POINT('',(17.,32.,6.));
#486=CARTESIAN_POINT('',(-1.73472347597681E-15,8.67361737988404E-16,6.));
#487=CARTESIAN_POINT('',(9.35051335489691,-9.4048867185901E-17,5.99999999999802));
#488=CARTESIAN_POINT('',(17.,32.,6.));
#489=CARTESIAN_POINT('',(17.,6.36886960184215,6.));
#490=CARTESIAN_POINT('',(7.89629817273885,12.555814396778,6.));
#491=CARTESIAN_POINT('',(13.9362611372818,8.75730742517223,6.));
#492=CARTESIAN_POINT('',(17.0000000000374,6.36886960181296,6.));
#493=CARTESIAN_POINT('',(21.1711375740797,32.,9.5));
#494=CARTESIAN_POINT('',(9.84947844443469,0.,0.));
#495=CARTESIAN_POINT('',(50.,32.,9.5));
#496=CARTESIAN_POINT('',(50.,-5.54526825320471,9.5));
#497=CARTESIAN_POINT('',(43.5,-5.54526825320471,9.5));
#498=CARTESIAN_POINT('',(50.,-5.54526825320471,9.5));
#499=CARTESIAN_POINT('',(50.,21.5,9.5));
#500=CARTESIAN_POINT('',(50.,5.54526825320471,9.5));
#501=CARTESIAN_POINT('',(50.,5.54526825320471,9.5));
#502=CARTESIAN_POINT('',(43.5,5.54526825320471,9.5));
#503=CARTESIAN_POINT('',(43.5,20.375,9.5));
#504=CARTESIAN_POINT('',(50.,11.,0.));
#505=CARTESIAN_POINT('',(50.,0.,0.));
#506=CARTESIAN_POINT('',(49.9999999999991,-7.34788079488412E-16,-6.00000000000172));
#507=CARTESIAN_POINT('',(50.,21.5,-9.5));
#508=CARTESIAN_POINT('',(50.,5.54526825320471,-9.5));
#509=CARTESIAN_POINT('',(50.,-5.5452682532047,-9.5));
#510=CARTESIAN_POINT('',(50.,0.,0.));
#511=CARTESIAN_POINT('',(50.,0.,0.));
#512=CARTESIAN_POINT('',(50.,0.,0.));
#513=CARTESIAN_POINT('',(43.5,0.,0.));
#514=CARTESIAN_POINT('',(43.5,-5.54526825320471,-9.5));
#515=CARTESIAN_POINT('',(50.,-5.54526825320471,-9.5));
#516=CARTESIAN_POINT('',(43.5,8.75,0.));
#517=CARTESIAN_POINT('',(43.5,0.,0.));
#518=CARTESIAN_POINT('',(43.5,5.54526825320471,-9.5));
#519=CARTESIAN_POINT('',(43.5,20.375,-9.5));
#520=CARTESIAN_POINT('',(43.5,0.,0.));
#521=CARTESIAN_POINT('',(43.5,-1.07156594925393E-15,-8.75));
#522=CARTESIAN_POINT('',(50.,0.,0.));
#523=CARTESIAN_POINT('',(10.4999999999929,0.,-8.75));
#524=CARTESIAN_POINT('',(20.2773223796122,1.07156594925393E-15,-8.7499999999908));
#525=CARTESIAN_POINT('',(9.84947844443474,0.,0.));
#526=CARTESIAN_POINT('',(17.0000000005306,0.,0.));
#527=CARTESIAN_POINT('',(9.84947844443474,0.,0.));
#528=CARTESIAN_POINT('',(7.89629817313843,0.,0.));
#529=CARTESIAN_POINT('',(50.,0.,0.));
#530=CARTESIAN_POINT('',(50.,5.54526825320471,-9.5));
#531=CARTESIAN_POINT('',(21.1711375740797,32.,-9.5));
#532=CARTESIAN_POINT('',(17.,32.,-6.));
#533=CARTESIAN_POINT('',(-1.73472347597681E-15,8.67361737988404E-16,0.));
#534=CARTESIAN_POINT('',(-1.73472347597681E-15,8.67361737988404E-16,8.));
#535=CARTESIAN_POINT('',(-7.70922175060119,1.37778824307315E-15,8.00000000000123));
#536=CARTESIAN_POINT('',(-1.73472347597681E-15,8.67361737988404E-16,0.));
#537=CARTESIAN_POINT('',(-1.73472347597681E-15,8.67361737988404E-16,-8.));
#538=CARTESIAN_POINT('',(7.70922175060118,1.07668103257871E-15,-8.00000000000123));
#539=CARTESIAN_POINT('',(11.11,-32.,-8.));
#540=CARTESIAN_POINT('',(11.11,32.,8.));
#541=CARTESIAN_POINT('',(49.3235,0.,0.));
#542=CARTESIAN_POINT('',(49.93235,0.,-5.9323500000031));
#543=DIRECTION('',(1.,0.,0.));
#544=DIRECTION('',(0.,0.,-866.0254037844));
#545=DIRECTION('',(-0.499999999997054,0.,0.86602540378614));
#546=DIRECTION('',(1.,0.,0.));
#547=DIRECTION('',(0.,0.,-5.3235));
#548=DIRECTION('',(-1.,0.,0.));
#549=DIRECTION('',(0.,0.,-5.3235));
#550=DIRECTION('',(1.,0.,0.));
#551=DIRECTION('',(-1.,0.,0.));
#552=DIRECTION('',(0.,0.,-5.3235));
#553=DIRECTION('',(0.,0.,1.));
#554=DIRECTION('',(-6.,0.,0.));
#555=DIRECTION('',(0.,0.,-1.));
#556=DIRECTION('',(0.,0.,1.));
#557=DIRECTION('',(-6.,0.,0.));
#558=DIRECTION('',(0.,0.,-1.));
#559=DIRECTION('',(-6.,0.,0.));
#560=DIRECTION('',(0.,0.,-1.));
#561=DIRECTION('',(-6.,0.,0.));
#562=DIRECTION('',(1.,0.,0.));
#563=DIRECTION('',(0.,1.,0.));
#564=DIRECTION('',(0.,0.,1.));
#565=DIRECTION('',(0.,16.,0.));
#566=DIRECTION('',(-1.,0.,0.));
#567=DIRECTION('',(0.,0.,13.9157635495255));
#568=DIRECTION('',(0.,0.,1.));
#569=DIRECTION('',(0.,-14.8323969741913,0.));
#570=DIRECTION('',(-1.,0.,0.));
#571=DIRECTION('',(0.,0.,13.9157635495255));
#572=DIRECTION('',(0.,0.,-1.));
#573=DIRECTION('',(0.,14.8323969741913,0.));
#574=DIRECTION('',(-1.,0.,0.));
#575=DIRECTION('',(0.,0.,13.9157635495255));
#576=DIRECTION('',(-1.,0.,0.));
#577=DIRECTION('',(0.,0.,13.9157635493));
#578=DIRECTION('',(-1.,0.,0.));
#579=DIRECTION('',(0.,0.,-8.75));
#580=DIRECTION('',(0.,0.,-1.));
#581=DIRECTION('',(0.,0.,-1.));
#582=DIRECTION('',(0.,-9.35051335489127,0.));
#583=DIRECTION('',(0.,1.,0.));
#584=DIRECTION('',(0.,0.,1.));
#585=DIRECTION('',(0.,0.,1.));
#586=DIRECTION('',(0.,9.35051335489127,0.));
#587=DIRECTION('',(0.,-1.,0.));
#588=DIRECTION('',(-0.642787609686539,0.,0.766044443118978));
#589=DIRECTION('',(-0.642787609686539,0.,0.766044443118978));
#590=DIRECTION('',(-10.4278439351993,0.,-8.75));
#591=DIRECTION('',(0.,0.,1.));
#592=DIRECTION('',(1.,0.,0.));
#593=DIRECTION('',(0.,-1.,0.));
#594=DIRECTION('',(-1.,0.,0.));
#595=DIRECTION('',(0.,1.,0.));
#596=DIRECTION('',(-1.,0.,0.));
#597=DIRECTION('',(1.,0.,0.));
#598=DIRECTION('',(0.,0.,-6.00000000000345));
#599=DIRECTION('',(0.,-1.,0.));
#600=DIRECTION('',(-1.,0.,0.));
#601=DIRECTION('',(0.,0.,-11.));
#602=DIRECTION('',(-1.,0.,0.));
#603=DIRECTION('',(0.,0.,-11.));
#604=DIRECTION('',(-1.,0.,0.));
#605=DIRECTION('',(0.,0.,-11.));
#606=DIRECTION('',(-1.,0.,0.));
#607=DIRECTION('',(0.,0.,-11.));
#608=DIRECTION('',(1.,0.,0.));
#609=DIRECTION('',(1.,0.,0.));
#610=DIRECTION('',(1.,0.,0.));
#611=DIRECTION('',(0.,0.,-11.));
#612=DIRECTION('',(0.,1.,0.));
#613=DIRECTION('',(1.,0.,0.));
#614=DIRECTION('',(0.,0.,-8.75));
#615=DIRECTION('',(-1.,0.,0.));
#616=DIRECTION('',(0.,0.,-8.75));
#617=DIRECTION('',(1.,0.,0.));
#618=DIRECTION('',(0.642787609686539,0.,0.766044443118978));
#619=DIRECTION('',(10.4278439351993,0.,-8.75));
#620=DIRECTION('',(1.,0.,0.));
#621=DIRECTION('',(0.,0.,-8.75));
#622=DIRECTION('',(0.642787609686539,0.,0.766044443118978));
#623=DIRECTION('',(10.4278439351993,0.,-8.75));
#624=DIRECTION('',(-1.,0.,0.));
#625=DIRECTION('',(0.,0.,13.9157635493));
#626=DIRECTION('',(-1.,0.,0.));
#627=DIRECTION('',(0.,0.,-11.));
#628=DIRECTION('',(-1.,0.,0.));
#629=DIRECTION('',(0.,0.,-1.));
#630=DIRECTION('',(-0.642787609686539,0.,-0.766044443118978));
#631=DIRECTION('',(1.,0.,0.));
#632=DIRECTION('',(0.,1.,0.));
#633=DIRECTION('',(0.,0.,1.));
#634=DIRECTION('',(0.,-7.70922175060492,0.));
#635=DIRECTION('',(1.,0.,0.));
#636=DIRECTION('',(0.,1.,0.));
#637=DIRECTION('',(0.,0.,-1.));
#638=DIRECTION('',(0.,7.70922175060492,0.));
#639=DIRECTION('',(0.,0.,1.));
#640=DIRECTION('',(0.,0.,-1.));
#641=DIRECTION('',(1.,0.,0.));
#642=DIRECTION('',(0.,0.,-5.3235));
#643=DIRECTION('',(-0.707106781184743,0.,0.707106781188352));
#644=CONICAL_SURFACE('',#389,866.0254037844,1.0471975512);
#645=CONICAL_SURFACE('',#404,13.9157635493,0.5161307711);
#646=CONICAL_SURFACE('',#426,13.9157635493,0.5161307711);
#647=CONICAL_SURFACE('',#436,5.3235,0.7853981634);
#648=CLOSED_SHELL('',(#367,#368,#369,#370,#371,#372,#373,#374,#375,#376,
#377,#378,#379,#380,#381,#382,#383,#384,#385,#386,#387,#388));
#649=MANIFOLD_SOLID_BREP('',#648);
#650=ADVANCED_BREP_SHAPE_REPRESENTATION('',(#649),#62);
ENDSEC;
END-ISO-10303-21;
