ISO-10303-21;
HEADER;
/* Generated by software containing ST-Developer
 * from STEP Tools, Inc. (www.steptools.com) 
 */

FILE_DESCRIPTION(
/* description */ ('Alibre Inc.'),
/* implementation_level */ '2;1');

FILE_NAME(
/* name */ 'export-3F5EC253-404F-43F2-AC68-8A013716E3C3',
/* time_stamp */ '2024-02-05T20:23:58+01:00',
/* author */ (''),
/* organization */ (''),
/* preprocessor_version */ 'ST-DEVELOPER v17',
/* originating_system */ 'Alibre',
/* authorisation */ '');

FILE_SCHEMA (('AUTOMOTIVE_DESIGN'));
ENDSEC;

DATA;
#10=STYLED_ITEM('NAME_0',(#18),#719);
#11=MECHANICAL_DESIGN_GEOMETRIC_PRESENTATION_REPRESENTATION('NAME_0',(#10),
#33);
#12=COLOUR_RGB('',0.686274509803922,0.686274509803922,0.686274509803922);
#13=FILL_AREA_STYLE_COLOUR('NAME_0',#12);
#14=FILL_AREA_STYLE('NAME_0',(#13));
#15=SURFACE_STYLE_FILL_AREA(#14);
#16=SURFACE_SIDE_STYLE('NAME_0',(#15));
#17=SURFACE_STYLE_USAGE(.POSITIVE.,#16);
#18=PRESENTATION_STYLE_ASSIGNMENT((#17));
#19=PRODUCT_DEFINITION_CONTEXT('part definition',#26,'design');
#20=SHAPE_DEFINITION_REPRESENTATION(#21,#720);
#21=PRODUCT_DEFINITION_SHAPE('PRODUCT_VERSION_ID',
'PRODUCT_VERSION_DESCR',#22);
#22=PRODUCT_DEFINITION('PRODUCT_VERSION_ID','PRODUCT_VERSION_DESCR',#23,
#19);
#23=PRODUCT_DEFINITION_FORMATION_WITH_SPECIFIED_SOURCE(
'PRODUCT_VERSION_ID','PRODUCT_VERSION_DESCR',#28,.MADE.);
#24=PRODUCT_RELATED_PRODUCT_CATEGORY('part','part',(#28));
#25=APPLICATION_PROTOCOL_DEFINITION('Draft International Standard',
'automotive_design',1994,#26);
#26=APPLICATION_CONTEXT('automotive_Design');
#27=PRODUCT_CONTEXT('3D Mechanical Parts',#26,'mechanical');
#28=PRODUCT('W0950502020-50',
'3775 W0950502020 Fork GK-M-050-063 M16x1.5','',(#27));
#29=(
LENGTH_UNIT()
NAMED_UNIT(*)
SI_UNIT(.MILLI.,.METRE.)
);
#30=(
NAMED_UNIT(*)
PLANE_ANGLE_UNIT()
SI_UNIT($,.RADIAN.)
);
#31=(
NAMED_UNIT(*)
SI_UNIT($,.STERADIAN.)
SOLID_ANGLE_UNIT()
);
#32=UNCERTAINTY_MEASURE_WITH_UNIT(LENGTH_MEASURE(1.E-6),#29,
'DISTANCE_ACCURACY_VALUE',
'Maximum model space distance between geometric entities at asserted c
onnectivities');
#33=(
GEOMETRIC_REPRESENTATION_CONTEXT(3)
GLOBAL_UNCERTAINTY_ASSIGNED_CONTEXT((#32))
GLOBAL_UNIT_ASSIGNED_CONTEXT((#31,#30,#29))
REPRESENTATION_CONTEXT('ID1','3D')
);
#34=CONICAL_SURFACE('',#471,8.,0.785398163397448);
#35=CONICAL_SURFACE('',#475,7.188,0.785398163397453);
#36=CYLINDRICAL_SURFACE('',#451,13.);
#37=CYLINDRICAL_SURFACE('',#463,8.);
#38=CYLINDRICAL_SURFACE('',#469,8.);
#39=CYLINDRICAL_SURFACE('',#470,8.);
#40=CYLINDRICAL_SURFACE('',#473,7.188);
#41=TOROIDAL_SURFACE('',#448,13.52,0.520000000000007);
#42=TOROIDAL_SURFACE('',#453,12.48,0.519999999999989);
#43=TOROIDAL_SURFACE('',#460,7.2,0.799999999999995);
#44=TOROIDAL_SURFACE('',#466,7.2,0.799999999999999);
#45=VECTOR('',#479,1.);
#46=VECTOR('',#480,1.);
#47=VECTOR('',#481,1.);
#48=VECTOR('',#483,1.);
#49=VECTOR('',#484,1.);
#50=VECTOR('',#485,1.);
#51=VECTOR('',#486,1.);
#52=VECTOR('',#492,1.);
#53=VECTOR('',#493,1.);
#54=VECTOR('',#494,1.);
#55=VECTOR('',#498,1.);
#56=VECTOR('',#499,1.);
#57=VECTOR('',#503,1.);
#58=VECTOR('',#504,1.);
#59=VECTOR('',#505,1.);
#60=VECTOR('',#507,1.);
#61=VECTOR('',#508,1.);
#62=VECTOR('',#509,1.);
#63=VECTOR('',#515,1.);
#64=VECTOR('',#516,1.);
#65=VECTOR('',#517,1.);
#66=VECTOR('',#521,1.);
#67=VECTOR('',#522,1.);
#68=VECTOR('',#523,1.);
#69=VECTOR('',#527,1.);
#70=VECTOR('',#528,1.);
#71=VECTOR('',#538,1.);
#72=VECTOR('',#559,1.);
#73=VECTOR('',#570,1.);
#74=VECTOR('',#573,1.);
#75=VECTOR('',#576,1.);
#76=VECTOR('',#581,1.);
#77=VECTOR('',#586,1.);
#78=LINE('',#591,#45);
#79=LINE('',#593,#46);
#80=LINE('',#595,#47);
#81=LINE('',#597,#48);
#82=LINE('',#600,#49);
#83=LINE('',#602,#50);
#84=LINE('',#604,#51);
#85=LINE('',#610,#52);
#86=LINE('',#611,#53);
#87=LINE('',#613,#54);
#88=LINE('',#616,#55);
#89=LINE('',#618,#56);
#90=LINE('',#622,#57);
#91=LINE('',#624,#58);
#92=LINE('',#626,#59);
#93=LINE('',#628,#60);
#94=LINE('',#630,#61);
#95=LINE('',#632,#62);
#96=LINE('',#638,#63);
#97=LINE('',#640,#64);
#98=LINE('',#642,#65);
#99=LINE('',#646,#66);
#100=LINE('',#648,#67);
#101=LINE('',#650,#68);
#102=LINE('',#654,#69);
#103=LINE('',#655,#70);
#104=LINE('',#663,#71);
#105=LINE('',#681,#72);
#106=LINE('',#690,#73);
#107=LINE('',#692,#74);
#108=LINE('',#694,#75);
#109=LINE('',#699,#76);
#110=LINE('',#703,#77);
#111=VERTEX_POINT('',#589);
#112=VERTEX_POINT('',#590);
#113=VERTEX_POINT('',#592);
#114=VERTEX_POINT('',#594);
#115=VERTEX_POINT('',#598);
#116=VERTEX_POINT('',#599);
#117=VERTEX_POINT('',#601);
#118=VERTEX_POINT('',#603);
#119=VERTEX_POINT('',#607);
#120=VERTEX_POINT('',#608);
#121=VERTEX_POINT('',#612);
#122=VERTEX_POINT('',#617);
#123=VERTEX_POINT('',#621);
#124=VERTEX_POINT('',#623);
#125=VERTEX_POINT('',#625);
#126=VERTEX_POINT('',#629);
#127=VERTEX_POINT('',#631);
#128=VERTEX_POINT('',#635);
#129=VERTEX_POINT('',#636);
#130=VERTEX_POINT('',#639);
#131=VERTEX_POINT('',#641);
#132=VERTEX_POINT('',#645);
#133=VERTEX_POINT('',#647);
#134=VERTEX_POINT('',#649);
#135=VERTEX_POINT('',#653);
#136=VERTEX_POINT('',#660);
#137=VERTEX_POINT('',#664);
#138=VERTEX_POINT('',#668);
#139=VERTEX_POINT('',#672);
#140=VERTEX_POINT('',#675);
#141=VERTEX_POINT('',#678);
#142=VERTEX_POINT('',#684);
#143=VERTEX_POINT('',#687);
#144=VERTEX_POINT('',#695);
#145=VERTEX_POINT('',#697);
#146=VERTEX_POINT('',#700);
#147=CIRCLE('',#429,8.);
#148=CIRCLE('',#432,8.);
#149=CIRCLE('',#433,8.);
#150=CIRCLE('',#435,8.);
#151=CIRCLE('',#437,8.);
#152=CIRCLE('',#440,8.);
#153=CIRCLE('',#441,8.);
#154=CIRCLE('',#443,13.52);
#155=CIRCLE('',#445,8.);
#156=CIRCLE('',#449,0.520000000000007);
#157=CIRCLE('',#450,13.);
#158=CIRCLE('',#452,13.);
#159=CIRCLE('',#454,0.519999999999989);
#160=CIRCLE('',#455,12.48);
#161=CIRCLE('',#457,8.);
#162=CIRCLE('',#459,7.2);
#163=CIRCLE('',#461,0.799999999999995);
#164=CIRCLE('',#462,8.);
#165=CIRCLE('',#465,7.2);
#166=CIRCLE('',#467,0.799999999999999);
#167=CIRCLE('',#468,8.);
#168=CIRCLE('',#472,7.188);
#169=CIRCLE('',#474,7.188);
#170=EDGE_CURVE('',#111,#112,#147,.T.);
#171=EDGE_CURVE('',#112,#113,#78,.T.);
#172=EDGE_CURVE('',#113,#114,#79,.T.);
#173=EDGE_CURVE('',#111,#114,#80,.T.);
#174=EDGE_CURVE('',#115,#116,#81,.T.);
#175=EDGE_CURVE('',#117,#116,#82,.T.);
#176=EDGE_CURVE('',#118,#117,#83,.T.);
#177=EDGE_CURVE('',#118,#115,#84,.T.);
#178=EDGE_CURVE('',#119,#120,#148,.T.);
#179=EDGE_CURVE('',#120,#119,#149,.T.);
#180=EDGE_CURVE('',#116,#113,#85,.T.);
#181=EDGE_CURVE('',#121,#112,#86,.T.);
#182=EDGE_CURVE('',#117,#121,#87,.T.);
#183=EDGE_CURVE('',#112,#111,#150,.T.);
#184=EDGE_CURVE('',#122,#111,#88,.T.);
#185=EDGE_CURVE('',#121,#122,#89,.T.);
#186=EDGE_CURVE('',#123,#123,#151,.T.);
#187=EDGE_CURVE('',#114,#124,#90,.T.);
#188=EDGE_CURVE('',#125,#124,#91,.T.);
#189=EDGE_CURVE('',#122,#125,#92,.T.);
#190=EDGE_CURVE('',#124,#126,#93,.T.);
#191=EDGE_CURVE('',#127,#126,#94,.T.);
#192=EDGE_CURVE('',#125,#127,#95,.T.);
#193=EDGE_CURVE('',#128,#129,#152,.T.);
#194=EDGE_CURVE('',#129,#128,#153,.T.);
#195=EDGE_CURVE('',#126,#130,#96,.T.);
#196=EDGE_CURVE('',#131,#130,#97,.T.);
#197=EDGE_CURVE('',#127,#131,#98,.T.);
#198=EDGE_CURVE('',#132,#132,#154,.T.);
#199=EDGE_CURVE('',#130,#133,#99,.T.);
#200=EDGE_CURVE('',#134,#133,#100,.T.);
#201=EDGE_CURVE('',#131,#134,#101,.T.);
#202=EDGE_CURVE('',#135,#135,#155,.T.);
#203=EDGE_CURVE('',#133,#115,#102,.T.);
#204=EDGE_CURVE('',#134,#118,#103,.T.);
#205=EDGE_CURVE('',#132,#136,#156,.T.);
#206=EDGE_CURVE('',#136,#136,#157,.T.);
#207=EDGE_CURVE('',#137,#136,#104,.T.);
#208=EDGE_CURVE('',#137,#137,#158,.T.);
#209=EDGE_CURVE('',#138,#137,#159,.T.);
#210=EDGE_CURVE('',#138,#138,#160,.T.);
#211=EDGE_CURVE('',#139,#139,#161,.T.);
#212=EDGE_CURVE('',#140,#140,#162,.T.);
#213=EDGE_CURVE('',#141,#140,#163,.T.);
#214=EDGE_CURVE('',#141,#141,#164,.T.);
#215=EDGE_CURVE('',#135,#141,#105,.T.);
#216=EDGE_CURVE('',#142,#142,#165,.T.);
#217=EDGE_CURVE('',#142,#143,#166,.T.);
#218=EDGE_CURVE('',#143,#143,#167,.T.);
#219=EDGE_CURVE('',#143,#128,#106,.T.);
#220=EDGE_CURVE('',#123,#119,#107,.T.);
#221=EDGE_CURVE('',#111,#144,#108,.T.);
#222=EDGE_CURVE('',#144,#145,#168,.T.);
#223=EDGE_CURVE('',#145,#144,#168,.T.);
#224=EDGE_CURVE('',#146,#145,#109,.T.);
#225=EDGE_CURVE('',#146,#146,#169,.T.);
#226=EDGE_CURVE('',#139,#146,#110,.T.);
#227=ORIENTED_EDGE('',*,*,#170,.T.);
#228=ORIENTED_EDGE('',*,*,#171,.T.);
#229=ORIENTED_EDGE('',*,*,#172,.T.);
#230=ORIENTED_EDGE('',*,*,#173,.F.);
#231=ORIENTED_EDGE('',*,*,#174,.T.);
#232=ORIENTED_EDGE('',*,*,#175,.F.);
#233=ORIENTED_EDGE('',*,*,#176,.F.);
#234=ORIENTED_EDGE('',*,*,#177,.T.);
#235=ORIENTED_EDGE('',*,*,#178,.F.);
#236=ORIENTED_EDGE('',*,*,#179,.F.);
#237=ORIENTED_EDGE('',*,*,#180,.T.);
#238=ORIENTED_EDGE('',*,*,#171,.F.);
#239=ORIENTED_EDGE('',*,*,#181,.F.);
#240=ORIENTED_EDGE('',*,*,#182,.F.);
#241=ORIENTED_EDGE('',*,*,#175,.T.);
#242=ORIENTED_EDGE('',*,*,#181,.T.);
#243=ORIENTED_EDGE('',*,*,#183,.T.);
#244=ORIENTED_EDGE('',*,*,#184,.F.);
#245=ORIENTED_EDGE('',*,*,#185,.F.);
#246=ORIENTED_EDGE('',*,*,#186,.F.);
#247=ORIENTED_EDGE('',*,*,#187,.T.);
#248=ORIENTED_EDGE('',*,*,#188,.F.);
#249=ORIENTED_EDGE('',*,*,#189,.F.);
#250=ORIENTED_EDGE('',*,*,#184,.T.);
#251=ORIENTED_EDGE('',*,*,#173,.T.);
#252=ORIENTED_EDGE('',*,*,#190,.T.);
#253=ORIENTED_EDGE('',*,*,#191,.F.);
#254=ORIENTED_EDGE('',*,*,#192,.F.);
#255=ORIENTED_EDGE('',*,*,#188,.T.);
#256=ORIENTED_EDGE('',*,*,#193,.F.);
#257=ORIENTED_EDGE('',*,*,#194,.F.);
#258=ORIENTED_EDGE('',*,*,#195,.T.);
#259=ORIENTED_EDGE('',*,*,#196,.F.);
#260=ORIENTED_EDGE('',*,*,#197,.F.);
#261=ORIENTED_EDGE('',*,*,#191,.T.);
#262=ORIENTED_EDGE('',*,*,#198,.F.);
#263=ORIENTED_EDGE('',*,*,#199,.T.);
#264=ORIENTED_EDGE('',*,*,#200,.F.);
#265=ORIENTED_EDGE('',*,*,#201,.F.);
#266=ORIENTED_EDGE('',*,*,#196,.T.);
#267=ORIENTED_EDGE('',*,*,#202,.F.);
#268=ORIENTED_EDGE('',*,*,#203,.T.);
#269=ORIENTED_EDGE('',*,*,#177,.F.);
#270=ORIENTED_EDGE('',*,*,#204,.F.);
#271=ORIENTED_EDGE('',*,*,#200,.T.);
#272=ORIENTED_EDGE('',*,*,#176,.T.);
#273=ORIENTED_EDGE('',*,*,#182,.T.);
#274=ORIENTED_EDGE('',*,*,#185,.T.);
#275=ORIENTED_EDGE('',*,*,#189,.T.);
#276=ORIENTED_EDGE('',*,*,#192,.T.);
#277=ORIENTED_EDGE('',*,*,#197,.T.);
#278=ORIENTED_EDGE('',*,*,#201,.T.);
#279=ORIENTED_EDGE('',*,*,#204,.T.);
#280=ORIENTED_EDGE('',*,*,#174,.F.);
#281=ORIENTED_EDGE('',*,*,#203,.F.);
#282=ORIENTED_EDGE('',*,*,#199,.F.);
#283=ORIENTED_EDGE('',*,*,#195,.F.);
#284=ORIENTED_EDGE('',*,*,#190,.F.);
#285=ORIENTED_EDGE('',*,*,#187,.F.);
#286=ORIENTED_EDGE('',*,*,#172,.F.);
#287=ORIENTED_EDGE('',*,*,#180,.F.);
#288=ORIENTED_EDGE('',*,*,#205,.F.);
#289=ORIENTED_EDGE('',*,*,#198,.T.);
#290=ORIENTED_EDGE('',*,*,#205,.T.);
#291=ORIENTED_EDGE('',*,*,#206,.F.);
#292=ORIENTED_EDGE('',*,*,#207,.T.);
#293=ORIENTED_EDGE('',*,*,#206,.T.);
#294=ORIENTED_EDGE('',*,*,#207,.F.);
#295=ORIENTED_EDGE('',*,*,#208,.F.);
#296=ORIENTED_EDGE('',*,*,#209,.T.);
#297=ORIENTED_EDGE('',*,*,#208,.T.);
#298=ORIENTED_EDGE('',*,*,#209,.F.);
#299=ORIENTED_EDGE('',*,*,#210,.F.);
#300=ORIENTED_EDGE('',*,*,#211,.F.);
#301=ORIENTED_EDGE('',*,*,#210,.T.);
#302=ORIENTED_EDGE('',*,*,#212,.F.);
#303=ORIENTED_EDGE('',*,*,#213,.T.);
#304=ORIENTED_EDGE('',*,*,#212,.T.);
#305=ORIENTED_EDGE('',*,*,#213,.F.);
#306=ORIENTED_EDGE('',*,*,#214,.F.);
#307=ORIENTED_EDGE('',*,*,#215,.T.);
#308=ORIENTED_EDGE('',*,*,#214,.T.);
#309=ORIENTED_EDGE('',*,*,#215,.F.);
#310=ORIENTED_EDGE('',*,*,#202,.T.);
#311=ORIENTED_EDGE('',*,*,#216,.T.);
#312=ORIENTED_EDGE('',*,*,#217,.T.);
#313=ORIENTED_EDGE('',*,*,#218,.T.);
#314=ORIENTED_EDGE('',*,*,#217,.F.);
#315=ORIENTED_EDGE('',*,*,#216,.F.);
#316=ORIENTED_EDGE('',*,*,#219,.T.);
#317=ORIENTED_EDGE('',*,*,#193,.T.);
#318=ORIENTED_EDGE('',*,*,#194,.T.);
#319=ORIENTED_EDGE('',*,*,#219,.F.);
#320=ORIENTED_EDGE('',*,*,#218,.F.);
#321=ORIENTED_EDGE('',*,*,#220,.T.);
#322=ORIENTED_EDGE('',*,*,#178,.T.);
#323=ORIENTED_EDGE('',*,*,#179,.T.);
#324=ORIENTED_EDGE('',*,*,#220,.F.);
#325=ORIENTED_EDGE('',*,*,#186,.T.);
#326=ORIENTED_EDGE('',*,*,#221,.F.);
#327=ORIENTED_EDGE('',*,*,#183,.F.);
#328=ORIENTED_EDGE('',*,*,#170,.F.);
#329=ORIENTED_EDGE('',*,*,#221,.T.);
#330=ORIENTED_EDGE('',*,*,#222,.T.);
#331=ORIENTED_EDGE('',*,*,#223,.T.);
#332=ORIENTED_EDGE('',*,*,#224,.F.);
#333=ORIENTED_EDGE('',*,*,#225,.T.);
#334=ORIENTED_EDGE('',*,*,#224,.T.);
#335=ORIENTED_EDGE('',*,*,#222,.F.);
#336=ORIENTED_EDGE('',*,*,#223,.F.);
#337=ORIENTED_EDGE('',*,*,#226,.F.);
#338=ORIENTED_EDGE('',*,*,#211,.T.);
#339=ORIENTED_EDGE('',*,*,#226,.T.);
#340=ORIENTED_EDGE('',*,*,#225,.F.);
#341=EDGE_LOOP('',(#227,#228,#229,#230));
#342=EDGE_LOOP('',(#231,#232,#233,#234));
#343=EDGE_LOOP('',(#235,#236));
#344=EDGE_LOOP('',(#237,#238,#239,#240,#241));
#345=EDGE_LOOP('',(#242,#243,#244,#245));
#346=EDGE_LOOP('',(#246));
#347=EDGE_LOOP('',(#247,#248,#249,#250,#251));
#348=EDGE_LOOP('',(#252,#253,#254,#255));
#349=EDGE_LOOP('',(#256,#257));
#350=EDGE_LOOP('',(#258,#259,#260,#261));
#351=EDGE_LOOP('',(#262));
#352=EDGE_LOOP('',(#263,#264,#265,#266));
#353=EDGE_LOOP('',(#267));
#354=EDGE_LOOP('',(#268,#269,#270,#271));
#355=EDGE_LOOP('',(#272,#273,#274,#275,#276,#277,#278,#279));
#356=EDGE_LOOP('',(#280,#281,#282,#283,#284,#285,#286,#287));
#357=EDGE_LOOP('',(#288,#289,#290,#291));
#358=EDGE_LOOP('',(#292,#293,#294,#295));
#359=EDGE_LOOP('',(#296,#297,#298,#299));
#360=EDGE_LOOP('',(#300));
#361=EDGE_LOOP('',(#301));
#362=EDGE_LOOP('',(#302));
#363=EDGE_LOOP('',(#303,#304,#305,#306));
#364=EDGE_LOOP('',(#307,#308,#309,#310));
#365=EDGE_LOOP('',(#311));
#366=EDGE_LOOP('',(#312,#313,#314,#315));
#367=EDGE_LOOP('',(#316,#317,#318,#319,#320));
#368=EDGE_LOOP('',(#321,#322,#323,#324,#325));
#369=EDGE_LOOP('',(#326,#327,#328,#329,#330,#331));
#370=EDGE_LOOP('',(#332,#333,#334,#335,#336));
#371=EDGE_LOOP('',(#337,#338,#339,#340));
#372=FACE_BOUND('',#341,.T.);
#373=FACE_BOUND('',#342,.T.);
#374=FACE_BOUND('',#343,.T.);
#375=FACE_BOUND('',#344,.T.);
#376=FACE_BOUND('',#345,.T.);
#377=FACE_BOUND('',#346,.T.);
#378=FACE_BOUND('',#347,.T.);
#379=FACE_BOUND('',#348,.T.);
#380=FACE_BOUND('',#349,.T.);
#381=FACE_BOUND('',#350,.T.);
#382=FACE_BOUND('',#351,.T.);
#383=FACE_BOUND('',#352,.T.);
#384=FACE_BOUND('',#353,.T.);
#385=FACE_BOUND('',#354,.T.);
#386=FACE_BOUND('',#355,.T.);
#387=FACE_BOUND('',#356,.T.);
#388=FACE_BOUND('',#357,.T.);
#389=FACE_BOUND('',#358,.T.);
#390=FACE_BOUND('',#359,.T.);
#391=FACE_BOUND('',#360,.T.);
#392=FACE_BOUND('',#361,.T.);
#393=FACE_BOUND('',#362,.T.);
#394=FACE_BOUND('',#363,.T.);
#395=FACE_BOUND('',#364,.T.);
#396=FACE_BOUND('',#365,.T.);
#397=FACE_BOUND('',#366,.T.);
#398=FACE_BOUND('',#367,.T.);
#399=FACE_BOUND('',#368,.T.);
#400=FACE_BOUND('',#369,.T.);
#401=FACE_BOUND('',#370,.T.);
#402=FACE_BOUND('',#371,.T.);
#403=ADVANCED_FACE('',(#372),#704,.F.);
#404=ADVANCED_FACE('',(#373),#705,.F.);
#405=ADVANCED_FACE('',(#374,#375),#706,.F.);
#406=ADVANCED_FACE('',(#376),#707,.F.);
#407=ADVANCED_FACE('',(#377,#378),#708,.F.);
#408=ADVANCED_FACE('',(#379),#709,.F.);
#409=ADVANCED_FACE('',(#380,#381),#710,.F.);
#410=ADVANCED_FACE('',(#382,#383),#711,.F.);
#411=ADVANCED_FACE('',(#384,#385),#712,.F.);
#412=ADVANCED_FACE('',(#386),#713,.T.);
#413=ADVANCED_FACE('',(#387),#714,.F.);
#414=ADVANCED_FACE('',(#388),#41,.F.);
#415=ADVANCED_FACE('',(#389),#36,.T.);
#416=ADVANCED_FACE('',(#390),#42,.T.);
#417=ADVANCED_FACE('',(#391,#392),#715,.F.);
#418=ADVANCED_FACE('',(#393),#716,.F.);
#419=ADVANCED_FACE('',(#394),#43,.T.);
#420=ADVANCED_FACE('',(#395),#37,.T.);
#421=ADVANCED_FACE('',(#396),#717,.F.);
#422=ADVANCED_FACE('',(#397),#44,.T.);
#423=ADVANCED_FACE('',(#398),#38,.T.);
#424=ADVANCED_FACE('',(#399),#39,.T.);
#425=ADVANCED_FACE('',(#400),#34,.F.);
#426=ADVANCED_FACE('',(#401),#40,.F.);
#427=ADVANCED_FACE('',(#402),#35,.F.);
#428=AXIS2_PLACEMENT_3D('',#587,#476,$);
#429=AXIS2_PLACEMENT_3D('',#588,#477,#478);
#430=AXIS2_PLACEMENT_3D('',#596,#482,$);
#431=AXIS2_PLACEMENT_3D('',#605,#487,$);
#432=AXIS2_PLACEMENT_3D('',#606,#488,#489);
#433=AXIS2_PLACEMENT_3D('',#609,#490,#491);
#434=AXIS2_PLACEMENT_3D('',#614,#495,$);
#435=AXIS2_PLACEMENT_3D('',#615,#496,#497);
#436=AXIS2_PLACEMENT_3D('',#619,#500,$);
#437=AXIS2_PLACEMENT_3D('',#620,#501,#502);
#438=AXIS2_PLACEMENT_3D('',#627,#506,$);
#439=AXIS2_PLACEMENT_3D('',#633,#510,$);
#440=AXIS2_PLACEMENT_3D('',#634,#511,#512);
#441=AXIS2_PLACEMENT_3D('',#637,#513,#514);
#442=AXIS2_PLACEMENT_3D('',#643,#518,$);
#443=AXIS2_PLACEMENT_3D('',#644,#519,#520);
#444=AXIS2_PLACEMENT_3D('',#651,#524,$);
#445=AXIS2_PLACEMENT_3D('',#652,#525,#526);
#446=AXIS2_PLACEMENT_3D('',#656,#529,$);
#447=AXIS2_PLACEMENT_3D('',#657,#530,$);
#448=AXIS2_PLACEMENT_3D('',#658,#531,$);
#449=AXIS2_PLACEMENT_3D('',#659,#532,#533);
#450=AXIS2_PLACEMENT_3D('',#661,#534,#535);
#451=AXIS2_PLACEMENT_3D('',#662,#536,#537);
#452=AXIS2_PLACEMENT_3D('',#665,#539,#540);
#453=AXIS2_PLACEMENT_3D('',#666,#541,$);
#454=AXIS2_PLACEMENT_3D('',#667,#542,#543);
#455=AXIS2_PLACEMENT_3D('',#669,#544,#545);
#456=AXIS2_PLACEMENT_3D('',#670,#546,$);
#457=AXIS2_PLACEMENT_3D('',#671,#547,#548);
#458=AXIS2_PLACEMENT_3D('',#673,#549,$);
#459=AXIS2_PLACEMENT_3D('',#674,#550,#551);
#460=AXIS2_PLACEMENT_3D('',#676,#552,$);
#461=AXIS2_PLACEMENT_3D('',#677,#553,#554);
#462=AXIS2_PLACEMENT_3D('',#679,#555,#556);
#463=AXIS2_PLACEMENT_3D('',#680,#557,#558);
#464=AXIS2_PLACEMENT_3D('',#682,#560,$);
#465=AXIS2_PLACEMENT_3D('',#683,#561,#562);
#466=AXIS2_PLACEMENT_3D('',#685,#563,$);
#467=AXIS2_PLACEMENT_3D('',#686,#564,#565);
#468=AXIS2_PLACEMENT_3D('',#688,#566,#567);
#469=AXIS2_PLACEMENT_3D('',#689,#568,#569);
#470=AXIS2_PLACEMENT_3D('',#691,#571,#572);
#471=AXIS2_PLACEMENT_3D('',#693,#574,#575);
#472=AXIS2_PLACEMENT_3D('',#696,#577,#578);
#473=AXIS2_PLACEMENT_3D('',#698,#579,#580);
#474=AXIS2_PLACEMENT_3D('',#701,#582,#583);
#475=AXIS2_PLACEMENT_3D('',#702,#584,#585);
#476=DIRECTION('',(1.,0.,0.));
#477=DIRECTION('',(1.,0.,0.));
#478=DIRECTION('',(0.,0.,-8.));
#479=DIRECTION('',(0.,-1.,0.));
#480=DIRECTION('',(0.,0.,1.));
#481=DIRECTION('',(0.,-1.,0.));
#482=DIRECTION('',(0.866025403784439,0.,0.5));
#483=DIRECTION('',(-0.5,0.,0.866025403784439));
#484=DIRECTION('',(0.,-1.,0.));
#485=DIRECTION('',(-0.5,0.,0.866025403784439));
#486=DIRECTION('',(0.,-1.,0.));
#487=DIRECTION('',(0.,0.,-1.));
#488=DIRECTION('',(0.,0.,1.));
#489=DIRECTION('',(-8.,0.,0.));
#490=DIRECTION('',(0.,0.,1.));
#491=DIRECTION('',(-8.,0.,0.));
#492=DIRECTION('',(1.,0.,0.));
#493=DIRECTION('',(0.,-1.,0.));
#494=DIRECTION('',(1.,0.,0.));
#495=DIRECTION('',(1.,0.,0.));
#496=DIRECTION('',(1.,0.,0.));
#497=DIRECTION('',(0.,0.,-8.));
#498=DIRECTION('',(0.,-1.,0.));
#499=DIRECTION('',(0.,0.,1.));
#500=DIRECTION('',(0.,0.,1.));
#501=DIRECTION('',(0.,0.,-1.));
#502=DIRECTION('',(8.,0.,0.));
#503=DIRECTION('',(-1.,0.,0.));
#504=DIRECTION('',(0.,-1.,0.));
#505=DIRECTION('',(-1.,0.,0.));
#506=DIRECTION('',(0.866025403784439,0.,-0.5));
#507=DIRECTION('',(0.5,0.,0.866025403784439));
#508=DIRECTION('',(0.,-1.,0.));
#509=DIRECTION('',(0.5,0.,0.866025403784439));
#510=DIRECTION('',(0.,0.,-1.));
#511=DIRECTION('',(0.,0.,1.));
#512=DIRECTION('',(-8.,0.,0.));
#513=DIRECTION('',(0.,0.,1.));
#514=DIRECTION('',(-8.,0.,0.));
#515=DIRECTION('',(1.,0.,0.));
#516=DIRECTION('',(0.,-1.,0.));
#517=DIRECTION('',(1.,0.,0.));
#518=DIRECTION('',(-1.,0.,0.));
#519=DIRECTION('',(1.,0.,0.));
#520=DIRECTION('',(0.,0.,-13.52));
#521=DIRECTION('',(0.,0.,-1.));
#522=DIRECTION('',(0.,-1.,0.));
#523=DIRECTION('',(0.,0.,-1.));
#524=DIRECTION('',(0.,0.,1.));
#525=DIRECTION('',(0.,0.,-1.));
#526=DIRECTION('',(8.,0.,0.));
#527=DIRECTION('',(-1.,0.,0.));
#528=DIRECTION('',(-1.,0.,0.));
#529=DIRECTION('',(0.,1.,0.));
#530=DIRECTION('',(0.,1.,0.));
#531=DIRECTION('',(1.,0.,0.));
#532=DIRECTION('',(0.,1.,0.));
#533=DIRECTION('',(0.,0.,-0.520000000000007));
#534=DIRECTION('',(1.,0.,0.));
#535=DIRECTION('',(0.,0.,-13.));
#536=DIRECTION('',(1.,0.,0.));
#537=DIRECTION('',(0.,0.,-13.));
#538=DIRECTION('',(-1.,0.,0.));
#539=DIRECTION('',(1.,0.,0.));
#540=DIRECTION('',(0.,0.,-13.));
#541=DIRECTION('',(1.,0.,0.));
#542=DIRECTION('',(0.,1.,0.));
#543=DIRECTION('',(0.,0.,-0.519999999999989));
#544=DIRECTION('',(1.,0.,0.));
#545=DIRECTION('',(0.,0.,-12.48));
#546=DIRECTION('',(-1.,0.,0.));
#547=DIRECTION('',(1.,0.,0.));
#548=DIRECTION('',(0.,0.,-8.));
#549=DIRECTION('',(0.,0.,1.));
#550=DIRECTION('',(0.,0.,1.));
#551=DIRECTION('',(7.2,0.,0.));
#552=DIRECTION('',(0.,0.,1.));
#553=DIRECTION('',(0.,1.,0.));
#554=DIRECTION('',(0.799999999999995,0.,0.));
#555=DIRECTION('',(0.,0.,1.));
#556=DIRECTION('',(8.,0.,0.));
#557=DIRECTION('',(0.,0.,1.));
#558=DIRECTION('',(8.,0.,0.));
#559=DIRECTION('',(0.,0.,-1.));
#560=DIRECTION('',(0.,0.,-1.));
#561=DIRECTION('',(0.,0.,1.));
#562=DIRECTION('',(7.2,0.,0.));
#563=DIRECTION('',(0.,0.,1.));
#564=DIRECTION('',(0.,1.,0.));
#565=DIRECTION('',(0.799999999999999,0.,0.));
#566=DIRECTION('',(0.,0.,1.));
#567=DIRECTION('',(8.,0.,0.));
#568=DIRECTION('',(0.,0.,1.));
#569=DIRECTION('',(8.,0.,0.));
#570=DIRECTION('',(0.,0.,-1.));
#571=DIRECTION('',(0.,0.,1.));
#572=DIRECTION('',(8.,0.,0.));
#573=DIRECTION('',(0.,0.,-1.));
#574=DIRECTION('',(-1.,0.,0.));
#575=DIRECTION('',(0.,0.,8.));
#576=DIRECTION('',(0.707106781186548,0.,-0.707106781186547));
#577=DIRECTION('',(1.,0.,0.));
#578=DIRECTION('',(0.,0.,-7.188));
#579=DIRECTION('',(1.,0.,0.));
#580=DIRECTION('',(0.,0.,-7.188));
#581=DIRECTION('',(-1.,0.,0.));
#582=DIRECTION('',(1.,0.,0.));
#583=DIRECTION('',(0.,0.,-7.188));
#584=DIRECTION('',(1.,0.,0.));
#585=DIRECTION('',(0.,0.,-7.188));
#586=DIRECTION('',(-0.707106781186544,0.,0.707106781186551));
#587=CARTESIAN_POINT('',(32.,16.,-8.));
#588=CARTESIAN_POINT('',(32.,0.,0.));
#589=CARTESIAN_POINT('',(32.,4.89858719658941E-16,8.));
#590=CARTESIAN_POINT('',(32.,-4.89858719658941E-16,-8.));
#591=CARTESIAN_POINT('',(32.,0.,-8.));
#592=CARTESIAN_POINT('',(32.,-16.,-8.));
#593=CARTESIAN_POINT('',(32.,-16.,-8.));
#594=CARTESIAN_POINT('',(32.,-16.,8.));
#595=CARTESIAN_POINT('',(32.,0.,8.));
#596=CARTESIAN_POINT('',(-14.381197846483,16.,-16.));
#597=CARTESIAN_POINT('',(-14.381197846483,-16.,-16.));
#598=CARTESIAN_POINT('',(-14.381197846483,-16.,-16.));
#599=CARTESIAN_POINT('',(-19.,-16.,-8.));
#600=CARTESIAN_POINT('',(-19.,16.,-8.));
#601=CARTESIAN_POINT('',(-19.,16.,-8.));
#602=CARTESIAN_POINT('',(-14.381197846483,16.,-16.));
#603=CARTESIAN_POINT('',(-14.381197846483,16.,-16.));
#604=CARTESIAN_POINT('',(-14.381197846483,16.,-16.));
#605=CARTESIAN_POINT('',(-19.,16.,-8.));
#606=CARTESIAN_POINT('',(0.,0.,-8.));
#607=CARTESIAN_POINT('',(8.,3.98319700041184E-16,-8.));
#608=CARTESIAN_POINT('',(-8.,9.79717439317883E-16,-8.));
#609=CARTESIAN_POINT('',(0.,0.,-8.));
#610=CARTESIAN_POINT('',(-19.,-16.,-8.));
#611=CARTESIAN_POINT('',(32.,16.,-8.));
#612=CARTESIAN_POINT('',(32.,16.,-8.));
#613=CARTESIAN_POINT('',(-19.,16.,-8.));
#614=CARTESIAN_POINT('',(32.,16.,-8.));
#615=CARTESIAN_POINT('',(32.,0.,0.));
#616=CARTESIAN_POINT('',(32.,16.,8.));
#617=CARTESIAN_POINT('',(32.,16.,8.));
#618=CARTESIAN_POINT('',(32.,16.,-8.));
#619=CARTESIAN_POINT('',(32.,16.,8.));
#620=CARTESIAN_POINT('',(0.,0.,8.));
#621=CARTESIAN_POINT('',(8.,9.79717439317883E-16,8.));
#622=CARTESIAN_POINT('',(32.,-16.,8.));
#623=CARTESIAN_POINT('',(-19.,-16.,8.));
#624=CARTESIAN_POINT('',(-19.,16.,8.));
#625=CARTESIAN_POINT('',(-19.,16.,8.));
#626=CARTESIAN_POINT('',(32.,16.,8.));
#627=CARTESIAN_POINT('',(-19.,16.,8.));
#628=CARTESIAN_POINT('',(-19.,-16.,8.));
#629=CARTESIAN_POINT('',(-14.381197846483,-16.,16.));
#630=CARTESIAN_POINT('',(-14.381197846483,16.,16.));
#631=CARTESIAN_POINT('',(-14.381197846483,16.,16.));
#632=CARTESIAN_POINT('',(-19.,16.,8.));
#633=CARTESIAN_POINT('',(-14.381197846483,16.,16.));
#634=CARTESIAN_POINT('',(0.,0.,16.));
#635=CARTESIAN_POINT('',(8.,3.98319700041184E-16,16.));
#636=CARTESIAN_POINT('',(-8.,9.79717439317883E-16,16.));
#637=CARTESIAN_POINT('',(0.,0.,16.));
#638=CARTESIAN_POINT('',(-14.381197846483,-16.,16.));
#639=CARTESIAN_POINT('',(40.,-16.,16.));
#640=CARTESIAN_POINT('',(40.,16.,16.));
#641=CARTESIAN_POINT('',(40.,16.,16.));
#642=CARTESIAN_POINT('',(-14.381197846483,16.,16.));
#643=CARTESIAN_POINT('',(40.,16.,16.));
#644=CARTESIAN_POINT('',(40.,0.,0.));
#645=CARTESIAN_POINT('',(40.,-1.65572247244722E-15,-13.52));
#646=CARTESIAN_POINT('',(40.,-16.,16.));
#647=CARTESIAN_POINT('',(40.,-16.,-16.));
#648=CARTESIAN_POINT('',(40.,16.,-16.));
#649=CARTESIAN_POINT('',(40.,16.,-16.));
#650=CARTESIAN_POINT('',(40.,16.,16.));
#651=CARTESIAN_POINT('',(40.,16.,-16.));
#652=CARTESIAN_POINT('',(0.,0.,-16.));
#653=CARTESIAN_POINT('',(8.,9.79717439317883E-16,-16.));
#654=CARTESIAN_POINT('',(40.,-16.,-16.));
#655=CARTESIAN_POINT('',(40.,16.,-16.));
#656=CARTESIAN_POINT('',(0.,16.,0.));
#657=CARTESIAN_POINT('',(0.,-16.,0.));
#658=CARTESIAN_POINT('',(40.52,0.,0.));
#659=CARTESIAN_POINT('',(40.52,0.,-13.52));
#660=CARTESIAN_POINT('',(40.52,-1.59204083889156E-15,-13.));
#661=CARTESIAN_POINT('',(40.52,0.,0.));
#662=CARTESIAN_POINT('',(64.,0.,0.));
#663=CARTESIAN_POINT('',(40.,0.,-13.));
#664=CARTESIAN_POINT('',(63.48,-1.59204083889156E-15,-13.));
#665=CARTESIAN_POINT('',(63.48,0.,0.));
#666=CARTESIAN_POINT('',(63.48,0.,0.));
#667=CARTESIAN_POINT('',(63.48,0.,-12.48));
#668=CARTESIAN_POINT('',(64.,-1.5283592053359E-15,-12.48));
#669=CARTESIAN_POINT('',(64.,0.,0.));
#670=CARTESIAN_POINT('',(64.,12.48,0.));
#671=CARTESIAN_POINT('',(64.,0.,0.));
#672=CARTESIAN_POINT('',(64.,-8.08514479691889E-15,-8.));
#673=CARTESIAN_POINT('',(0.,0.,-20.));
#674=CARTESIAN_POINT('',(0.,0.,-20.));
#675=CARTESIAN_POINT('',(7.2,-8.81745695386094E-16,-20.));
#676=CARTESIAN_POINT('',(0.,0.,-19.2));
#677=CARTESIAN_POINT('',(7.2,0.,-19.2));
#678=CARTESIAN_POINT('',(8.,-9.79717439317883E-16,-19.2));
#679=CARTESIAN_POINT('',(0.,0.,-19.2));
#680=CARTESIAN_POINT('',(0.,0.,20.));
#681=CARTESIAN_POINT('',(8.,0.,-55.2));
#682=CARTESIAN_POINT('',(7.2,0.,20.));
#683=CARTESIAN_POINT('',(0.,0.,20.));
#684=CARTESIAN_POINT('',(7.2,-8.81745695386094E-16,20.));
#685=CARTESIAN_POINT('',(0.,0.,19.2));
#686=CARTESIAN_POINT('',(7.2,0.,19.2));
#687=CARTESIAN_POINT('',(8.,-9.79717439317883E-16,19.2));
#688=CARTESIAN_POINT('',(0.,0.,19.2));
#689=CARTESIAN_POINT('',(0.,0.,20.));
#690=CARTESIAN_POINT('',(8.,0.,15.2));
#691=CARTESIAN_POINT('',(0.,0.,20.));
#692=CARTESIAN_POINT('',(8.,0.,-20.));
#693=CARTESIAN_POINT('',(32.,0.,0.));
#694=CARTESIAN_POINT('',(32.8932,0.,7.1068));
#695=CARTESIAN_POINT('',(32.812,1.59605662020113E-15,7.188));
#696=CARTESIAN_POINT('',(32.812,0.,0.));
#697=CARTESIAN_POINT('',(32.812,-1.15591856058757E-15,-7.188));
#698=CARTESIAN_POINT('',(64.,0.,0.));
#699=CARTESIAN_POINT('',(32.,0.,-7.188));
#700=CARTESIAN_POINT('',(63.188,-4.07238935962937E-15,-7.188));
#701=CARTESIAN_POINT('',(63.188,0.,0.));
#702=CARTESIAN_POINT('',(63.188,0.,0.));
#703=CARTESIAN_POINT('',(63.9188,0.,-7.9188));
#704=PLANE('',#428);
#705=PLANE('',#430);
#706=PLANE('',#431);
#707=PLANE('',#434);
#708=PLANE('',#436);
#709=PLANE('',#438);
#710=PLANE('',#439);
#711=PLANE('',#442);
#712=PLANE('',#444);
#713=PLANE('',#446);
#714=PLANE('',#447);
#715=PLANE('',#456);
#716=PLANE('',#458);
#717=PLANE('',#464);
#718=CLOSED_SHELL('',(#403,#404,#405,#406,#407,#408,#409,#410,#411,#412,
#413,#414,#415,#416,#417,#418,#419,#420,#421,#422,#423,#424,#425,#426,#427));
#719=MANIFOLD_SOLID_BREP('',#718);
#720=ADVANCED_BREP_SHAPE_REPRESENTATION('',(#719),#33);
ENDSEC;
END-ISO-10303-21;
